Incubus

Incubus - 11 Am (Version 2) guitar tab

#-----------------------------PLEASE NOTE-------------------------------------#

#This OLGA file is the author's own work and represents their interpretation #

#of the song. You may only use this file for private study, scholarship, or #

#research. Remember to view this file in Courier, or some other monospaced #

#font. See http://www.olga.net/faq/ for more information. #

#-----------------------------------------------------------------------------#

Subject: i/incubus/11_am.tab

Artist: Incubus

Song: 11 AM

Album: Morning View

(* =3D Palm Mute)

I tabbed this because all other versions I=92ve seen online were =

slightly off

(to be nice), and it=92s such an awesome song, I couldn=92t let it =

slide.

Basically the whole song except the bridge and the breakdown parts =

follow

this E-G, E-A pattern:

Intro: Finger this as one big Eish chord (for lack

of a better name):

3x E G

e|------000---------------| e|-0-|

B|------000---------------| B|-0-|

G|------444---------------| G|-4-|

D|-2-22-----------2p0-----| D|-2-|

A|-2-22-------2-------2-3-| A|-2-|

E|-0-00-----3---3-----0---| E|-0-|

** * * * *

4th Time:

E A

e|------000-------------------|

B|------000-------------------|

G|------444-------------------|

D|-2-22-------0-4---0-2p0---0-|

Get this song at:  amazon.com

Share your thoughts

0 Comments found