Incognito

Incognito - There Will Come A Day bass tab

Incognito

**********

There Will Come A Day

Album:"Life, Stranger Than Fiction"

Written By:J-P.Maunick/G.Harvey/P.Hinds

Bass Player:Julian Crampton

Transcription By:Simon Merrick

Hi'ya all,

Hope everyones enjoying the new album cos I am and that's

why I bring you another tab from "Life, Stranger than Fiction".

This track is very catchy and has got a very good groove, but

you have to be careful as Julian slips in some fast notes now and

again so listen to the record carefully.

Also again the song is played on a 5-string so in the bridge your

gonna have some notes that are played lower on the song which I

have tabbed higher.

Intro (Slides in from 19th fret E-string)

G:|-----------------|-----------------|---------------------||

D:|-----------------|-9---9---9-------|-------9/11\99-------||

A:|------------7h9--|-------9----7h9--|--------------7/99---||

E:|-7-----7x7-------|-----------------|-7--7x7-----------7-2||

I have split the verse into 2 sections to make it easier for

everyone.

Verse PT1

G:|-----------------|-----------------|-----------------|

D:|-----------------|-9---9---9-------|-----------------|

A:|------------7h9--|-------9----7h9--|-----------------|

E:|-7-----7x7-------|-----------------|-7-----7x7-----2-|

G:|-----------------|-----------------|-----------------|

D:|-----------------|-----------------|----2------------|

A:|-----------------|-----------------|------2----------|

E:|-7-----7x7---5---|-4-----4x4----2--|-0------0----0-2-|

G:|-----------------|-----------------||

D:|------5----------|-----------------|| Repeat 2x

A:|----5-----5------|-----------------||

E:|-3-----------3-4-|-5-----5x5---5-6-||

Verse PT2

G:|-----------------|-----------------|-----------------|

D:|---------16--16\-|----2------------|-----------------|

A:|-----------------|------2----------|-----------------|

E:|-4---------------|-0------0---0-2-3|-4-----4x4-----2-|

G:|-----------------|-----------------|-----------------|

D:|------2----------|---------16--16\-|----2------------|

A:|--------2--------|-----------------|------2----------|

E:|-0--------0------|-4---------------|-0------0---0--2-|

G:|-----------------|-----------------||

D:|------5----------|-----------------||

A:|----5----5-------|-----------------||

E:|-3----------3-4--|-5-----5x5-------||

Bridge

G:|-----------------|-----------------|-----------------|

D:|-----------------|-----------------|-------4---------|

A:|------3-4-5x5----|-4-----0-4x4-4-4-|-----4---4-------|

E:|-4-4-------------|--------------4-4|-2---------2-3-4-|

G:|-----------------|-----------------|-----------------|

D:|-----------------|-----------------|-----------------|

A:|-2--0-2--2-1-0x0-|-------3-4-5x5---|-4--2---4---4-4--|

E:|-----------------|-4-4-------------|------4------4-4-|

G:|-----------------|-----------------||

D:|-----------------|----------5------||

A:|-----------------|-----------------||

E:|-2-----2x2---1-2-|-3----3x3---3----||

Chorus

G:|-----------------|-----------------|-----------------|

D:|-----------------|-----------------|-----------------|

A:|-------456x6-4---|------234--------|-------456x6-4---|

E:|-4-4-----------6-|-4-4------0102030|-4-4-----------6-|

G:|-----------------||

D:|-----------------||

A:|------234--------||

E:|-4-4---------14\-||

Structure

*********

Intro

Verse PT1 x2

Verse PT2

Bridge

Chorus

Verse PT1 x2

Verse PT2

Bridge x2

Chorus (repeat till end w/ad.libs)

That's all, enjoy it and get into the Incognito groove.

If you have any comments or corrections just e-mail me at:

mrzender69@hotmail.com

Get this song at:  amazon.com sheetmusicplus.com

Share your thoughts

0 Comments found