Incognito

Incognito - Still A Friend Of Mine guitar tab

Title : Still a Friend of Mine

Band : Incognito

Transcipted by : Pomogh

Note : / = slide up

\ = slide down

I ONLY TELL YOU THE CHORD.

FOR TIMING AND RHYTHM, YOU BETTER CHECK THE CD.

I'M TOO LAZY TO FIGURE THE STRUCTURE SO, (AGAIN..) HEAR THE CD.

Intro : Fill 1 :

DMaj7 C#m7 CMaj7 Bm7 with "wah" effect/pedal

e|--5----4-----3----2--| e|--5--7-7/9-9--5-5-----------12-12-12---|

b|--7----5-----5----3--| b|---------------------------------------|

G|--6----4-----4----2--| G|---------------------------------------|

D|--7----6-----5----4--| D|---------------------------------------|

A|--5----4-----3----2--| A|---------------------------------------|

E|---------------------| E|---------------------------------------|

Trumpet/saxsofon?? 1 :

I change it into guitar

e|--------------------|

b|--------------------|

G|--12--11------------|

D|----------12--9--7--|

A|--------------------|

E|--------------------|

Interlude 1 :

BbMaj7 AMaj7

e|--1-------0------|

b|--3-------2------|

G|--2-------1------|

D|--3-------2------|

A|--1-------0------|

E|-----------------|

Verse 1 :

F#m9 C#m9 Am9 Bm9

e|--7----2----3---0--|

b|--9----4----3---2--|

G|--9----4----4---2--|

D|--7----2----5---0--|

A|--9----4----3---2--|

E|------------5------|

Interlude 2 :

AMaj7 Bm9

e|--0-----0--|

b|--2-----2--|

G|--1-----2--|

D|--2-----0--|

A|--0-----2--|

E|-----------|

Chorus :

DMaj7 C#m7 CMaj7 Bm7

e|--5----4-----3----2--|

b|--7----5-----5----3--|

G|--6----4-----4----2--|

D|--7----6-----5----4--|

A|--5----4-----3----2--|

E|---------------------|

Trumpet/saxsofon?? 2 :

I change it into guitar

e|---------------------|

b|---------------------|

G|--12--11-------------|

D|----------12--9--12--|

A|---------------------|

E|---------------------|

Trumpet/saxsofon?? 1 :

I change it into guitar

e|--------------------|

b|--------------------|

G|--12--11------------|

D|----------12--9--7--|

A|--------------------|

E|--------------------|

Interlude 1 :

BbMaj7 AMaj7

e|--1-------0------|

b|--3-------2------|

G|--2-------1------|

D|--3-------2------|

A|--1-------0------|

E|-----------------|

Verse 2 :

CMaj7 AMaj7

e|--3-------0------|

b|--5-------2------|

G|--4-------1------|

D|--5-------2------|

A|--3-------0------|

E|-----------------|

For the sax solo i will figure it out later.

Any comments or correction mail me at pomogh@yahoo.com

Get this song at:  amazon.com sheetmusicplus.com

Share your thoughts

0 Comments found