Incognito

Incognito - Slow Down bass tab

Incognito

**********

Slow Down (Get A Grip)

Album:"Life, Stranger Than Fiction"

Written By:J-P.Maunick/G.Sanctuary

Bass Player:Julian Crampton

Transcription By:Simon Merrick

Hi,

  Here's the bass tab for "Slow Down (get a grip)" from the new

album. It's a simple, repetative bass line but it's still got a

good groove goin and you can stick in all of your favourite fills.

Anyway here it is!

The bass first comes in on the chorus!

Chorus

G:|-----------5-----|-----------------|-----------5-----|

D:|-----2-------5---|-----2-----------|-----2-------5---|

A:|---2---0-3-----3-|---2---0-3----0-3|---2---0-3-----3-|

E:|-0---------------|-0---------------|-0---------------|

G:|-----------------||

D:|-----------------|| repeat until change

A:|----3--------2p0-||

E:|-3-----1--3------||

Verse

G:|----5------------|-3h5-------------||

D:|-----------------|------5----------|| repeat until change

A:|---------3-------|---------3-------||

E:|-3----3----------|-----------------||

This verse line has many ad-libs, so experiment.

That's about it. I am now open to requests!

If you have any comments or corrections just e-mail me at:

mrzender69@hotmail.com

Get this song at:  amazon.com sheetmusicplus.com

Share your thoughts

0 Comments found