Incognito

Incognito - Skin On My Skin bass tab

Incognito

*********

Skin On My Skin

Album:"Life, Stranger Than Fiction"

Written By:J.P.Maunick

Bass Player:Julian Crampton

Transcription By:Simon Merrick

Hi,

  This is only the basic line tabbed here, I have not included

all of the fills, just the ones that occur first time round.

Just one major note, I have tabbed the song out for 4-string

bass and it is played on a 5-string.

Riff 1

G:|-----------------|-----------------|---------5h6po5po3-|

D:|-----------------|-----------------|------------------5|

A:|-----------------|-----------x3----|-------------------|

E:|-4------4-4------|-4-----4-4----1-3|-4----4-4----------|

G:|-----------------||

D:|-----------------||

A:|-----------------||

E:|-4------4-4------||

Riff 2

G:|-----------------|-----------------|-----------------|

D:|-----------------|-----------------|-----------------|

A:|-----------1-3/5-|-3---------------|--------------3-4|

E:|-3-------3-------|--------3-8-----3|-4------4-4------|

G:|-----------------||

D:|-----------------||

A:|-5-----5-4-3-----||

E:|-------------3-8-||

Riff 3

G:|-----------------|-----------------|-----------------|

D:|-----------------|-----------------|-----------------|

A:|-----------------|---------8/10-8--|-----------------|

E:|-6------6-6---6-7|-8---8910------10|-8------8-8------|

G:|-----------------||

D:|-----------------||

A:|-----------------||

E:|-11-------11-11--||

Simple! The notes that should be on a 5-string are obvious, so

if you have one you know where to play them.

If you have any comments or corrections just e-mail me at:

mrzender69@hotmail.com

Get this song at:  amazon.com sheetmusicplus.com

Share your thoughts

0 Comments found