Incognito

Incognito - Reach Out bass tab

Incognito

**********

Reach Out

Album:"Life, Stranger Than Fiction"

Written By:J-P.Maunick/D.Oakenfull

Bass Player:Julian Crampton

Transcription by:Simon Merrick

This track is split into two sections(Riffs 1&2). This is just

the basic pattern without any fills. Julian really starts

filling at the end of the track. The bass is played

on a 5-string but sounds fine on four. As the majority of you

are four-stringers this is it for four strings.

Riff 1

G:|-----------------|----------4---4--|-----------------|

D:|----7------9-----|--7--------------|----7------9-----|

A:|-5----5/7--------|------012---2---2|-5----5/7--------|

E:|--------------7-5|----5------------|--------------7-5|

G:|-----------------||

D:|--7-------5---5--||repeat until riff 2

A:|-----------------||

E:|----5-543---3---3||

Riff 2

G:|-----------------|-----------------|-----------------|

D:|---------10------|-----------------|-----5--3--------|

A:|-------10--10----|--------7/9-7----|---5------3------|

E:|-8-------------0-|------7-------7-0|-3----------1--0-|

G:|-----------------||

D:|-----------------||x2

A:|----------9-7----||

E:|------7-------7-0||

Listen to the record carefully for timing! Until next time...

If you have any comments or corrections just e-mail me at:

mrzender69@hotmail.com

Get this song at:  amazon.com sheetmusicplus.com

Share your thoughts

0 Comments found