Incognito

Incognito - Jacobs Ladder bass tab

Incognito

**********

Jacobs Ladder(Intro)

Album:"100 & Rising"

Written by:J.Crampton/J.P.Maunick

Bass Player:Julian Crampton

Transcription By:Simon Merrick

Hi,

   As you can see here I have only tabbed out the bass "solo

intro" part as I am still not brave enough to tackle the whole

song. If anyone is, please have a go as it is intresting to

see what people come up with!

There are a few wrong notes but nothing major as it still sounds

nice. The great thing about this song is the fact there is only

one bass played in the whole song(or at least I think so).

Somethings to consider are that the intro is in free

time(ignore the bar lines) so listen to the record for the

great feeling this superb bass player has. Also if you want to

be able to play this properly experiment with chords and

harmonics. Anyway here it is.

H = Harmonics

* = Played note in a chord

Bass solo intro     H H

G:|-7/14-------19---|---------7-------|-12----9-10-10h12--|

D:|---------17---15\|-------7---------|----12-------------|

A:|-----------------|-------5---------|-------------------|

E:|-6/13------------|-7-6-------------|-------------------|

H

G:|------12---------|-5/7--5----------|---17\14-------14--|

D:|---10------------|-----------------|------------12-----|

A:|-----------------|-----------------|-7-----------------|

E:|-11--------------|-5/7--5----------|----------13-------|

      H

G:|-------14-12/14--|-7---12--------12|-9-10-11--------12-|

D:|----12-----------|------------12---|-------------10----|

A:|-----------------|-----------------|-------------------|

E:|-13--------------|---------12------|----------11-------|

                                  H     H  H

G:|----12-12/14--10-|--------10-------|--------7----------|

D:|-10--------------|---8-------------|-----7-------------|

A:|-----------------|-------------7---|--------*----------|

E:|-----------------|-9------10-------|-6------6----------|

  let notes ring.

G:|-17\14-----------||

D:|--------14-------||

A:|-----------0-----||

E:|-----------------||

That's the intro to the song, and also as far as I'm going

for now.

If you have any comments or corrections just e-mail me at:

mrzender69@hotmail.com

Get this song at:  amazon.com sheetmusicplus.com

Share your thoughts

0 Comments found