I Hate Kate

I Hate Kate - Bed Of Black Roses guitar tab

tabs-database.com[http://www.tabs-database.com.com/]

Tuning: Standard(Both guitars)

intro - both guitars

pm

C D#G#A#

e|----------|

B|----------|

G|----8-----|

D|-10-8-6-8-|

A|-10-6-6-8-|

E|-8----4-6-|

bridge

guitar 1

C D#G#A#

e|----------|

B|----------|

G|----8-----|

D|-10-8-6-8-|

A|-10-6-6-8-|

E|-8----4-6-|

guitar 2

e|--------------------------------------------------|

B|--------------------------------------------------|

G|-----15-12-15-12----10-8-10-12----10-8-10-8-7-8-7-|

D|--------------------------------------------------|

A|-15--------------13------------11-----------------|

E|--------------------------------------------------|

verse - no guitar 1

guitar 2

e|---------|

B|---------|

G|---------|

D|-10------|

A|-10------|

E|-8-/10\\6-|

guitar 2

the note in brackets i dont think is there but it might be and thats what wud be there.

e|-----------------------------------|

B|-----------------------------------|

G|------8h10-10h12-8h10-8h10-8h10h12-|

D|-(10)------------------------------|

A|-----------------------------------|

E|-----------------------------------|

e|-----------------------------------|

B|-----------------------------------|

G|-----8h10-10h12-8h10-8h10-8h10h12--|

D|--8--------------------------------|

A|-----------------------------------|

E|-----------------------------------|

e|-----------------------------------|

B|-----------------------------------|

G|-----8h10-10h12-8h10-8h10-8h10h12--|

D|--6--------------------------------|

A|-----------------------------------|

E|-----------------------------------|

e|-----------------------------------|

B|-----------------------------------|

G|-----8h10-10h12-8h10-8h10-8h10h12--|

D|--8--------------------------------|

A|-----------------------------------|

E|-----------------------------------|

chorus

both guitars

C D#G#A#

e|----------|

B|----------|

G|----8-----|

D|-10-8-6-8-|

A|-10-6-6-8-|

E|-8----4-6-|

x2

bridge

verse2 - no guitar 1

guitar 2

e|----|

B|----|

G|----|

D|-10-|

A|-10-|

E|-8--|

guitar 2

e|-----------------------------------|

B|-----------------------------------|

G|------8h10-10h12-8h10-8h10-8h10h12-|

D|-(10)------------------------------|

A|-----------------------------------|

E|-----------------------------------|

e|-----------------------------------|

B|-----------------------------------|

G|-----8h10-10h12-8h10-8h10-8h10h12--|

D|--8--------------------------------|

A|-----------------------------------|

E|-----------------------------------|

e|-----------------------------------|

B|-----------------------------------|

G|-----8h10-10h12-8h10-8h10-8h10h12--|

D|--6--------------------------------|

A|-----------------------------------|

E|-----------------------------------|

e|-----------------------------------|

B|-----------------------------------|

G|-----8h10-10h12-8h10-8h10-8h10h12--|

D|--8--------------------------------|

A|-----------------------------------|

E|-----------------------------------|

chorus

bridge 2

guitar 1

G G#G G#A#

e|-----------|

B|-----------|

G|-----------|

D|-5-6-5-6-8-|

A|-5-6-5-6-8-|

E|-3-4-3-4-6-|

guitar 2

G G# G G# A#

e|----------------|

B|----------------|

G|-12-13-12-13-15-|

D|-12-13-12-13-15-|

A|----------------|

E|----------------|

bridge 3 - both guitars

pm

C D#G#A#

e|----------|

B|----------|

G|----8-----|

D|-10-8-6-8-|

A|-10-6-6-8-|

E|-8----4-6-|

x2

G#A#

e|------|

B|------|

G|------|

D|--6-8-|

A|--6-8-|

E|--4-6-|

chorus

bridge x2

hold last chord

| / slide up

| \\ slide down

| h hammer-on

| p pull-off

| ~ vibrato

| + harmonic

| x Mute note

===============================================================================

Added by tabs-database.com and our distinguished partners

Get this song at:  amazon.com sheetmusicplus.com

Share your thoughts

0 Comments found