I Hate Kate

I Hate Kate - Always Something Bass guitar tab

-------------------------------------------------------------------------------

ALWAYS SOMETHING - I Hate Kate

-------------------------------------------------------------------------------

Tabbed By : Ryan (Tab #3)

e-mail: webmaster at tabs-database.com.com

Tuning:EADG (Standard)

VERSE (Starts at 0:04)

G|-----------------|-----------------|-----------------|-----------------|

D|-----------------|-----------------|-----------------|-3-3-3-3-3-3-3-3-|

A|-3-3-3-3-3-3-3-3-|-7-7-7-7-7-7-7-7-|-0-0-0-0-0-0-0-0-|-----------------|

E|-----------------|-----------------|-----------------|-----------------|x3

*BREAK*

(0:36) "...I'm with you..."

G|-----------------|

D|-----------------|

A|-8-8-8-8-8-8-8-8-|

E|-----------------|

CHORUS (Starts at 0:39) "Tonight..."

G|-------------------------|-----------------------|

D|-------------------------|-----------------------|

A|-10-10-10-10-10-10-10-10-|-10-10-10-10-10-10-7-9-|

E|-------------------------|-----------------------|

G|-------------------------|-----------------------|

D|-------------------------|-------------------9-7-|

A|-10-10-10-10-10-10-10-10-|-10-10-10-10-10-10-----|

E|-------------------------|-----------------------|

G|-----------------|-----------------|-----------------|-------------------------|

D|-----------------|-----------------|-----------------|-------------------------|

A|-7-7-7-7-7-7-7-7-|-7-7-7-7-7-7-7-7-|-8-8-8-8-8-8-8-8-|-10-10-10-10-10-10-10-10-|

E|-----------------|-----------------|-----------------|-------------------------|

BRIDGE, VERSE (0:56)

G|-----------------|-----------------|-----------------|-----------------|

D|-----------------|-----------------|-----------------|-3-3-3-3-3-3-3-3-|

A|-3-3-3-3-3-3-3-3-|-7-7-7-7-7-7-7-7-|-0-0-0-0-0-0-0-0-|-----------------|

E|-----------------|-----------------|-----------------|-----------------|x3

*BREAK*

(1:29) "...I'm with you..."

G|-----------------|

D|-----------------|

A|-8-8-8-8-8-8-8-8-|

E|-----------------|

CHORUS (Part 1)(1:32) "Tonight..."

G|-------------------------|-----------------------|

D|-------------------------|-----------------------|

A|-10-10-10-10-10-10-10-10-|-10-10-10-10-10-10-7-9-|

E|-------------------------|-----------------------|

G|-------------------------|-----------------------|

D|-------------------------|-------------------9-7-|

A|-10-10-10-10-10-10-10-10-|-10-10-10-10-10-10-----|

E|-------------------------|-----------------------|

G|-----------------|-----------------|-----------------|-----------------|

D|-----------------|-----------------|-----------------|-----------------|

A|-7-7-7-7-7-7-7-7-|-7-7-7-7-7-7-7-7-|-8-8-8-8-8-8-8-8-|-8-8-8-8-8-8-8-8-|

E|-----------------|-----------------|-----------------|-----------------|

CHORUS (Part 2) (1:48) "Tonight..."

G|-------------------------|-----------------------|

D|-------------------------|-----------------------|

A|-10-10-10-10-10-10-10-10-|-10-10-10-10-10-10-7-9-|

E|-------------------------|-----------------------|

G|-------------------------|-----------------------|

D|-------------------------|-------------------9-7-|

A|-10-10-10-10-10-10-10-10-|-10-10-10-10-10-10-----|

E|-------------------------|-----------------------|

G|-----------------|-----------------|-----------------|-------------------------|

D|-----------------|-----------------|-----------------|-------------------------|

A|-7-7-7-7-7-7-7-7-|-7-7-7-7-7-7-7-7-|-8-8-8-8-8-8-8-8-|-10-10-10-10-10-10-10-10-|

E|-----------------|-----------------|-----------------|-------------------------|

INTERLUDE (2:06) "Whoa oh..."

G|-----------------|-----------------|-----------------|-----------------|

D|-----------------|-----------------|-----------------|-3-3-3-3-3-3-3-3-|

A|-3-3-3-3-3-3-3-3-|-7-7-7-7-7-7-7-7-|-0-0-0-0-0-0-0-0-|-----------------|

E|-----------------|-----------------|-----------------|-(First 2 times)-|x3

Third time, last measure:

G|--------|

D|-3------|

A|--------|

E|--------|

CHORUS (Part 1) (2:32) "Tonight..."

G|-------------------------|-----------------------|

D|-------------------------|-----------------------|

A|-10-10-10-10-10-10-10-10-|-10-10-10-10-10-10-7-9-|

E|-------------------------|-----------------------|

G|-------------------------|-----------------------|

D|-------------------------|-------------------9-7-|

A|-10-10-10-10-10-10-10-10-|-10-10-10-10-10-10-----|

E|-------------------------|-----------------------|

G|-----------------|-----------------|-----------------|-----------------|

D|-----------------|-----------------|-----------------|-----------------|

A|-7-7-7-7-7-7-7-7-|-7-7-7-7-7-7-7-7-|-8-8-8-8-8-8-8-8-|-8-8-8-8-8-8-8-8-|

E|-----------------|-----------------|-----------------|-----------------|

CHORUS (Part 2) (2:49) "Tonight..."

G|-------------------------|-----------------------|

D|-------------------------|-----------------------|

A|-10-10-10-10-10-10-10-10-|-10-10-10-10-10-10-7-9-|

E|-------------------------|-----------------------|

G|-------------------------|-----------------------|

D|-------------------------|-------------------9-7-|

A|-10-10-10-10-10-10-10-10-|-10-10-10-10-10-10-----|

E|-------------------------|-----------------------|

G|-----------------|-----------------|-----------------|-------------------------|

D|-----------------|-----------------|-----------------|-------------------------|

A|-7-7-7-7-7-7-7-7-|-7-7-7-7-7-7-7-7-|-8-8-8-8-8-8-8-8-|-10-10-10-10-10-10-10-10-|

E|-----------------|-----------------|-----------------|-------------------------|

OUTRO (3:06) "...part of me"

G|-----------------|-----------------|-----------------|-----------------|

D|-----------------|-----------------|-----------------|-3-3-3-3-3-3-3-3-|

A|-3-3-3-3-3-3-3-3-|-7-7-7-7-7-7-7-7-|-0-0-0-0-0-0-0-0-|-----------------|

E|-----------------|-----------------|-----------------|-----------------|

G|-----------------|-----------------|-----------------|-----------------|-------------------|

D|-----------------|-----------------|-----------------|-3-3-3-3-3-3-3-3-|-5-5-5-5-5-5-5-5---|

A|-3-3-3-3-3-3-3-3-|-7-7-7-7-7-7-7-7-|-0-0-0-0-0-0-0-0-|-----------------|-------------------|

E|-----------------|-----------------|-----------------|-----------------|-------------------|

G|------------|

D|------------|

A|-3----------|

E|------------|

===============================================================================

| / slide up

| \\ slide down

| h hammer-on

| p pull-off

| ~ vibrato

| + harmonic

| x Mute note

===============================================================================

And there you have it. If you have any questions/concerns/corrections, leave a comment or email me.

NOTE: Each measure contains 8 notes or just 1 note. Please rate :)Added by tabs-database.com and our distinguished partners

Get this song at:  amazon.com sheetmusicplus.com

Share your thoughts

0 Comments found