Hum

Hum - Suicide Machine guitar tab

*Suicide Machine*

Transcribed by Obscured@san.rr.com

Http://home.san.rr.com/obscured

Tuning: D A D G B E

INTRO

x2

|-0----0----0----0--3--2--|

|-3----3----3----3--3--3--|

|-0----2----0----2--2--2--|

|-2----0----2----0--0--0--|

|-3---------3-------------|

|-------------------------|

VERSE

|-0----0----0----0--3--2--|

|-3----3----3----3--3--3--|

|-0----2----0----2--2--2--|

|-2----0----2----0--0--0--|

|-3---------3-------------|

|-------------------------|

|-0----0----0----0----|

|-3----3----3----0----|

|-0----2----0----2----|

|-2----0----2----2----|

|-3---------3----0----|

|---------------------|

PRECHORUS

|-0--0--------7-------|

|-0--0----8-----8---8-|

|-2--2------9-----9---|

|-2--2----------------|

|-0--0----------------|

|---------------------|

CHORUS

Guitar 1 - Distorted

|-------------------------|

|-------------------------|

|-2--2---5----------------|

|-2--2---5----------------|

|-0--0---3----------------|

|-------------------------|

|Guitar 2

|-0--0---0--------7-------|

|-0--0---0----8-----8---8-|

|-2--2---0------9-----9---|

|-2--2---2----------------|

|-0--0---3----------------|

|-------------------------|

VERSE 2 - Same

PRECHORUS 2 - Same

CHORUS 2 - Same

VERSE 3 - Same but distorted

End on

|-0----|

|-0----|

|-2----|

|-2----|

|-0----|

|------|

Get this song at:  amazon.com sheetmusicplus.com

Share your thoughts

0 Comments found