Hum

Hum - Diffuse guitar tab

*Diffuse*

Transcribed by Obscured@san.rr.com

Http://home.san.rr.com/obscured

Tuning: D A D G B E

INTRO

Clean guitars

|-----------|

|-3----3----|

|-2----2----|

|-0----0----|

|-2----0----|

|------0----|

Distorted guitars

|-----------------------------2-2--2-2----|

|-----------------------------3-3--3-3----|

|-11-------11-----------------2-2--2-2----|

|-9--------0---------7--------0-0--0-0----|

|-9--------9---------7--------0-0--0-0----|

|-9--------0---------7--------0-0--0-0----|

Clean guitars

|-----------|

|-3----3----|

|-2----2----|

|-0----0----|

|-2----0----|

|------0----|

VERSE

|-----------------------------2-2--2-2----|

|-----------------------------3-3--3-3----|

|-11-------11-----------------2-2--2-2----|

|-9--------0---------7--------0-0--0-0----|

|-9--------9---------7--------0-0--0-0----|

|-9--------0---------7--------0-0--0-0----|

BRIDGE - Same as verse

Lead

|----------------------------------------------------9-----9-----9---------

|--------------------------------7----7----7---------12b14-12b14-12b14~~~~-

|-----------------------7-9b11r9-9b11-9b11-9b11~~~~------------------------

|-------------------7h9----------------------------------------------------

|-4~~~~--------------------------------------------------------------------

|--------4b5r4~~~~---------------------------------------------------------

-17-17~~~~-------------------------------------------|

-----------------------------------------------------|

------------7h9p76h7p64h6-2-2-0-0------------------|

------------------------------------4-4-2-2-0--------|

-----------------------------------------------------|

-----------------------------------------------------|

VERSE 2

Play this throughout

|-----------------|

|-----------------|

|-----------------|

|-----------------|

|-5-5-5-5-5-5-5-5-|

|-----------------|

...............

VERSE 3 - Same as verse 1

CHORUS - Same as verse

End on

|------------------------------|

|-3-3---3-3---3-3---3-3--------|

|-2-2---2-2---2-2---2-2--------|

|-0-0---0-0---0-0---0-0--------|

|-0-0---0-0---0-0---0-0--------|

|-0-0---0-0---0-0---0-0--------|

Get this song at:  amazon.com sheetmusicplus.com

Share your thoughts

0 Comments found