Hank Williams Jr

Hank Williams Jr - It's All Over But The Crying intro guitar tab

It's All Over But The Crying

Key Of G {intro)

--------------------------------------------

-----------------------10--10--12--10----

9----10---11------------------------------

---------------------------------------------

----------------------------------------------

----------------------------------------------

---------------------------8-------10-----8---

11-----7----8----9---------------------------

---------------------------------------------

--------------------------------------------

---------------------------------------------

--------------------------------------------

------------------------8--------------------

-------------------7-----------------------

7---8----9---------------------------------

--------------------------------------------

-------------------------------------------

This is the intro we use when we do it in our set.Original has a piano intro.

Get this song at:  amazon.com sheetmusicplus.com

Share your thoughts

0 Comments found