Hank Williams Jr

Hank Williams Jr - Family Tradition guitar tab

Key:

h: Hammer p: Pull Off /: Slide b: Bend

br: Bend and release ~~~: Vibrato x: Muted string

bh: Bend and Hold rb: Release Bend

*******************************************************************

Theres not a whole lot to tab in this song other than the riffs

that are played during the verses and the solo, but there it is.

For the riffs, ill put down what word it comes after (or during)

and what time mark during the song the riff is played at.

..the same (approx. 1:27)

E------------------------------------------------------------------

B-----------5p3p0-5p3p0-5p3p0 3/5~~~-------------------------------

G------------------------------------------------------------------

D------------------------------------------------------------------

A------------------------------------------------------------------

E------------------------------------------------------------------

..over (approx. 1:31)

* "repick" this string before you release the bend

E-----------19-----------------------------------------------------

B------18bh----18rbp15-15hp----------------------------------------

G------------------------------------------------------------------

D------------------------------------------------------------------

A------------------------------------------------------------------

E------------------------------------------------------------------

..my position (aprox. 1:34)

E-------------3-3-3------------------------------------------------

B-------3-3/5-------5p3p0-3p0--------------------------------------

G-----------------------------2/4~~~-------------------------------

D------------------------------------------------------------------

A------------------------------------------------------------------

E------------------------------------------------------------------

..sing all night long (approx 1:37)

E--------7~~~~-----------------------------------------------------

B--0 3/5-----------------------------------------------------------

G------------------------------------------------------------------

D------------------------------------------------------------------

A------------------------------------------------------------------

E------------------------------------------------------------------

..tradition (approx 1:42)

E------------------------------------------------------------------

B----------3-------------------------------------------------------

G----0-2/4---4p2p0-------------------------------------------------

D------------------------------------------------------------------

A------------------------------------------------------------------

E------------------3br-0-------------------------------------------

..drink (approx 1:47)

E------------------------------------------------------------------

B-------17-18b-18brp17-17h18p17-15/17------------------------------

G------------------------------------------------------------------

D------------------------------------------------------------------

A------------------------------------------------------------------

E------------------------------------------------------------------

..smoke (approx. 1:51)

E------5p3p0-5p3p0-5p3p0-------------------------------------------

B------------------------------------------------------------------

G------------------------------------------------------------------

D------------------------------------------------------------------

A------------------------------------------------------------------

E------------------------------------------------------------------

..songs that you wrote (approx. 1:57)

E--------7~~~~-------------19-----19-------------------------------

B--0 3/5---------------18b----18b----18b19r-16h17------------------

G------------------------------------------------------------------

D------------------------------------------------------------------

A------------------------------------------------------------------

E------------------------------------------------------------------

..honky tonk (approx 2:04)...friction (approx 2:07)

E----/7\--/4~~-----------------------3-5-3-6b-6b-6br-3h5-----------

B----/8\--/5~~-----------------------3-4-3-5b-5b-5br-3h5-----------

G------------------------------------------------------------------

D------------------------------------------------------------------

A------------------------------------------------------------------

E------------------------------------------------------------------

..im singing all night long.. (approx 2:10)

E--------7~~~~-----------------------------------------------------

B--0 3/5-----------------------------------------------------------

G-------------------------2/4-4/2----------------------------------

D---------------------------------4~~~-----------------------------

A------------------------------------------------------------------

E------------------------------------------------------------------

..Tradition (approx 2:14)

E-----3------------------------------------------------------------

B---5---5-3-5-3---3------------------------------------------------

G---------------4---4-2-4-2---2------------------------------------

D---------------------------4---4-2-4-2---2------------------------

A---------------------------------------5---5-4-5-2----------------

E---------------------------------------------------3br-0----------

..1973 (approx) 3:03 ..Condition (approx 3:11)

E-----7--(7)------5--(5)--------------3-5-3-6b-6b-6br-3h5----------

B-----7pb-7pbr----7pb-7pbr-5~~~-------3-4-3-5b-5b-5br-3h5----------

G------------------------------------------------------------------

D------------------------------------------------------------------

A------------------------------------------------------------------

E------------------------------------------------------------------

..tradition (approx 3:18)

E---------5---5---5/7---7--7-7-------------------------------------

B---------5br-3h5-5/7-7-7b---7pbr-5~~~-----------------------------

G------------------------------------------------------------------

D------------------------------------------------------------------

A------------------------------------------------------------------

E------------------------------------------------------------------

Get this song at:  amazon.com sheetmusicplus.com

Share your thoughts

0 Comments found