Hank Williams Jr

Hank Williams Jr - Born To Boogie lead guitar tab

Key:

h: Hammer p: Pull Off /: Slide b: Bend

br: Bend and release ~~~: Vibrato x: Muted string

bh: Bend and Hold rb: Release Bend

*******************************************************************

Intro:

E

E------------------------------------------------------------------

B------------------------------------------------------------------

G------------------------------------------------------------------

D------------------------------------------------------------------

A------------------------------------------------------------------

E--0-0-0-0-0-0-0-0-0-0-0-0-0-0-3-4--0-0-0-0-0-0-0-0-0-0-0-0-0-0-3-4

First Verse:

E

E------------------------------------------------------------------

B------------------------------------------------------------------

G------------------------------------------------------------------

D------------------------------------------------------------------

A------------------------------------------------------------------

E--0-0-0-0-0-0-0-0-0-0-0-0-0-0-3-4--0-0-0-0-0-0-0-0-0-0-0-0-0-0-3-4

A E

E------------------------------------------------------------------

B------------------------------------------------------------------

G------------------------------------------------------------------

D------------------------------------------------------------------

A--0-0-0-0-0-0-0-0-0-0-0-0-0-0-------------------------------------

E------------------------------3-0-0-0-0-0-0-0-0-0-0-0-0-0-0-0-0---

E D A

E------------------------------------------------------------------

B------------------------------------------------------------------

G------------------------------------------------------------------

D------------------------------------------------------------------

A------------------------------------3-5-5-5-5-5-5-5-5-3-----------

E--0-0-0-0-0-0-0-0-0-0-0-0-0-0-0-0-5---------------------5-5-5-5-5-

E

E------------------------------------------------------------------

B------------------------------------------------------------------

G------------------------------------------------------------------

D------------------------------------------------------------------

A------------------------------------------------------------------

E-5-5-5-3-0-0-0-0-0-0-0-0-0-0-0-0-0-0-3-4--------------------------

Second Verse:

E

E------------------------------------------------------------------

B------------------------------------------------------------------

G------------------------------------------------------------------

D------------------------------------------------------------------

A------------------------------------------------------------------

E--0-0-0-0-0-0-0-0-0-0-0-0-0-0-3-4--0-0-0-0-0-0-0-0-0-0-0-0-0-0-3-4

A E

E------------------------------------------------------------------

B------------------------------------------------------------------

G------------------------------------------------------------------

D------------------------------------------------------------------

A--0-0-0-0-0-0-0-0-0-0-0-0-0-0-------------------------------------

E------------------------------3-0-0-0-0-0-0-0-0-0-0-0-0-0-0-0-0---

B E

E------------------------------------------------------------------

B------------------------------------------------------------------

G------------------------------------------------------------------

D------------------------------------------------------------------

A-0-1-2-2-2-2-2-2-2-2-2-2-2-2-2-2-2-2-0----------------------------

E---------------------------------------0--------------------------

Instrumental Break between verses:

E

E------------------------------------------------------------------

B------------------------------------------------------------------

G------------------------------------------------------------------

D------------------------------------------------------------------

A----------2---4-2---------2---4-2---------2---4-2---------2---4-2-

E--0-0-3-4---0-----0-0-3-4---0-----0-0-3-4---0-----0-0-3-4---0-----

Third Verse:

E

E------------------------------------------------------------------

B------------------------------------------------------------------

G------------------------------------------------------------------

D------------------------------------------------------------------

A----------2---4-2---------2---4-2---------2---4-2---------2---4-2-

E--0-0-3-4---0-----0-0-3-4---0-----0-0-3-4---0-----0-0-3-4---0-----

A E

E------------------------------------------------------------------

B------------------------------------------------------------------

G------------------------------------------------------------------

D----------2---4-2---------2---4-2---------------------------------

A--0-0-3-4---0-----0-0-3-4---0-------------2---4-2---------2---4-2-

E----------------------------------0-0-3-4---0-----0-0-3-4---0-----

Instrumental break between verses:

D A E

E------------------------------------------------------------------

B------------------------------------------------------------------

G------------------------------------------------------------------

D------------------------------------------------------------------

A----3-5-5-5-5-5-5-5-5-3---------------------------2---4-2---------

E--5---------------------5-5-5-5-5-5-5-5-3-0-0-3-4---0-----0-0-3-4-

E------------------------------------------------------------------

B------------------------------------------------------------------

G------------------------------------------------------------------

D------------------------------------------------------------------

A-2---4-2----------------------------------------------------------

E---0--------------------------------------------------------------

Fourth Verse:

E

E------------------------------------------------------------------

B------------------------------------------------------------------

G------------------------------------------------------------------

D------------------------------------------------------------------

A----------2---4-2---------2---4-2---------2---4-2---------2---4-2-

E--0-0-3-4---0-----0-0-3-4---0-----0-0-3-4---0-----0-0-3-4---0-----

A E

E------------------------------------------------------------------

B------------------------------------------------------------------

G------------------------------------------------------------------

D----------2---4-2---------2---4-2---------------------------------

A--0-0-3-4---0-----0-0-3-4---0-------------------------------------

E----------------------------------0-------------------------------

Instrumental Break and Key change:

D A F#

E------------------------------------------------------------------

B------------------------------------------------------------------

G------------------------------------------------------------------

D------------------------------------------------------------------

A----3-5-5-5-5-5-5-5-5-3---------------------------2---4-2---------

E--5---------------------5-5-5-5-5-5-5-5-3-2-2-5-6---2-----2-2-5-6-

E------------------------------------------------------------------

B------------------------------------------------------------------

G------------------------------------------------------------------

D------------------------------------------------------------------

A-4---6-4----------------------------------------------------------

E---2--------------------------------------------------------------

Fifth Verse:

F#

E------------------------------------------------------------------

B-----------------------------------

Get this song at:  amazon.com sheetmusicplus.com

Share your thoughts

0 Comments found