Gwar

Gwar - Carnival Of Caos guitar tab

Explanation:

h - hammer tap

x - muffled strings

^ - bend

a.h. - artifical harmonic

PM - palm mute

verse 1

PM .......... .......... a.h.

e |---------------------------------------------------------------

b |--------------------------------------------------------------

g |-(play 3 times)---------------------------------------------

d |8-8-8-9-8--------------------------------------9-9-8-------

a |6-6-6-7-6-9-9-9-8-8-6-6--6-6-6-9-9-8-8-8-7-7-6------

e |------------7-7-7-6-6-4-4--4-4-4-7-7-6-6-6--------4^---

verse 2 a.h.(6^) a.h. a.h.

e|-------------------------------------------------------------------------

b|-------------------------------------------------------------------------

g|--------------------------------------------------------------------------

d|-------------------------------------------------------------------------

a|----------6^----------6^-------------------------------------------6^--

e|0-2-1-0-----0-2-1-0----0-2-1-0-0-2-1-0-0-2-1-0-0-2-1-0-------

riff 1

PM........ ........ ........ .....

e|---------------------------------------------------------------

b|---------------------------------------------------------------

g|--------88888---------88888---------88888--------------

d|--------88888---------88888---------88888--99-88-6---

a|8h9-8-66666-8h9-8-66666-8h9-8-66666--99-88-6---

e|--------------------------------------------------77-66-4----

riff 2

e|----------------------------------------------------------------------------

b|----------------------------------------------------------------------------

g|----------------------------------------------------------------------------

d|------------------------6-6xxxx6-6-6----7-7xxxx7-7-7---9-9xxxx9-9-9------

a|9-9xxxx9-9-9---------4-4xxxx4-4-4----5-5xxxx5-5-5---7-7xxxx7-7-7------

e|7-7xxxx7-7-7----------------------------------------------------------------

riff 3

e|--------------------------------

b|--------------------------------

g|--------------------------------

d|----------6-6-7-7-9-9--------

a|9-9-9-9-4-4-5-5-7-7--------

e|7-7-7-7-----------------------

riff 4

e|------------------------------------

b|------------------------------------

g|------------------------------------

d|--------6-6-6-7-7-7-9-9-9-------

a|9-9-9-4-4-4-5-5-5-7-7-7-------

e|7-7-7------------------------------

solo: this should be played with riff 1

e|----------------------------------------------------------------------------

b|----------------------------------------------------------------------------

g|-6-8-9-6-9-8-6-4^---6-8-9-6-9-8-4^---6-9-8-6-8-9-4-6--4^--4^--4^--

d|----------------------------------------------------------------------------

a|----------------------------------------------------------------------------

e|----------------------------------------------------------------------------

Get this song at:  amazon.com sheetmusicplus.com

Share your thoughts

0 Comments found