Guns N Roses

Your Crazy Bass Tabs



More from Guns N Roses

Guns N Roses Tabs
Guns N Roses Chords
Guns N Roses Bass
Guns N Roses Lyrics



F#||--------------------|-------------------------|--------------------|
C#||--------------------|-------------------------|-------0------------|
G#||--------------------|-----0--0-----0-------0--|----0---------------|
D#||--3--------4--------|--3--------3-------3-----|--------------------|



-------------------------|----------------------|-------------------------|
-------------------------|----------------------|-------------------------|
-----0--0-----0-------0--|----0-----------------|-----0--0-----0-------0--|
--3--------3-------3-----|-------3--4--0--------|--3--------3-------3-----|



--------------------|-------------------------|----------------------|
-------0------------|-------------------------|----------------------|
----0---------------|-----0--0-----0-------0--|----0-----------------|
--------------------|--3--------3-------3-----|-------3--4--0--------|



-------------------------|--------------------|-------------------------|
-------------------------|-------0------------|-------------------------|
-----0--0-----0-------0--|----0---------------|-----0--0-----0-------0--|
--3--------3-------3-----|--------------------|--3--------3-------3-----|



----------------------|-------------------------|--------------------|
----------------------|-------------------------|-------0------------|
----0-----------------|-----0--0-----0-------0--|----0---------------|
-------3--4--0--------|--3--------3-------3-----|--------------------|



-------------------------|----------------------|-------------------------|
-------------------------|----------------------|-------------------------|
-----0--0-----0-------0--|----0-----------------|-----0--0-----0-------0--|
--3--------3-------3-----|-------3--4--0--------|--3--------3-------3-----|



--------------------|-------------------------|----------------------|
-------0------------|-------------------------|----------------------|
----0---------------|-----0--0-----0-------0--|----0-----------------|
--------------------|--3--------3-------3-----|-------3--4--0--------|



-------------------------|--------------------|-------------------------|
-------------------------|-------0------------|-------------------------|
-----0--0-----0-------0--|----0---------------|-----0--0-----0-------0--|
--3--------3-------3-----|--------------------|--3--------3-------3-----|



----------------------|-----------------------|-----------------------|
----------------------|--0--0--0--0--0--------|--0--0--0--0--0--------|
----0-----------------|-----------------------|-----------------------|
-------3--4--0--------|-----------------------|-----------------------|



-----------------------|--7--7--7--7--7--5------|-------------------------|
--0--0--0--0--0--------|------------------------|-------------------------|
-----------------------|------------------------|-----0--0-----0-------0--|
-----------------------|------------------------|--3--------3-------3-----|



--------------------|-------------------------|----------------------|
-------0------------|-------------------------|----------------------|
----0---------------|-----0--0-----0-------0--|----0-----------------|
--------------------|--3--------3-------3-----|-------3--4--0--------|



-----------------------|-----------------------|-----------------------|
--0--0--0--0--0--------|--0--0--0--0--0--------|--0--0--0--0--0--------|
-----------------------|-----------------------|-----------------------|
-----------------------|-----------------------|-----------------------|



--------------------------|--------------------------|
--0--0--0--0--0--0--0--0--|--2--2--2--2--2--2--2--2--|
--------------------------|--------------------------|
--------------------------|--------------------------|



--------------------------|--------------------------|--------------------|
--2--2--2--2--2--2--2--2--|--0--0--0--0--0--0--0--0--|--------------------|
--------------------------|--------------------------|--3-----------------|
--------------------------|--------------------------|-----------3--------|



-------------------------|--------------------|-------------------------|
-------------------------|-------0------------|-------------------------|
-----0--0-----0-------0--|----0---------------|-----0--0-----0-------0--|
--3--------3-------3-----|--------------------|--3--------3-------3-----|



----------------------|-------------------------|--------------------|
----------------------|-------------------------|-------0------------|
----0-----------------|-----0--0-----0-------0--|----0---------------|
-------3--4--0--------|--3--------3-------3-----|--------------------|



-------------------------|----------------------|-------------------------|
-------------------------|----------------------|-------------------------|
-----0--0-----0-------0--|----0-----------------|-----0--0-----0-------0--|
--3--------3-------3-----|-------3--4--0--------|--3--------3-------3-----|



--------------------|-------------------------|----------------------|
-------0------------|-------------------------|----------------------|
----0---------------|-----0--0-----0-------0--|----0-----------------|
--------------------|--3--------3-------3-----|-------3--4--0--------|



-------------------------|--------------------|-------------------------|
-------------------------|-------0------------|-------------------------|
-----0--0-----0-------0--|----0---------------|-----0--0-----0-------0--|
--3--------3-------3-----|--------------------|--3--------3-------3-----|



----------------------|-----------------------|-----------------------|
----------------------|--0--0--0--0--0--------|--0--0--0--0--0--------|
----0-----------------|-----------------------|-----------------------|
-------3--4--0--------|-----------------------|-----------------------|



-----------------------|--7--7--7--7--7--5------|-------------------------|
--0--0--0--0--0--------|------------------------|-------------------------|
-----------------------|------------------------|-----0--0-----0-------0--|
-----------------------|------------------------|--3--------3-------3-----|



--------------------|-------------------------|----------------------|
-------0------------|-------------------------|----------------------|
----0---------------|-----0--0-----0-------0--|----0-----------------|
--------------------|--3--------3-------3-----|-------3--4--0--------|



-----------------------|-----------------------|-----------------------|
--0--0--0--0--0--------|--0--0--0--0--0--------|--0--0--0--0--0--------|
-----------------------|-----------------------|-----------------------|
-----------------------|-----------------------|-----------------------|



--------------------------|--------------------|---------------------|
--0--0--0--0--0--0--0--0--|-----------2--------|--2----1--------0----|
--------------------------|--------------------|---------------------|
--------------------------|--0-----------------|---------------------|



----------------------|---------------------|--------------------|
----------------------|---------------------|--------------------|
----------------------|------0----0------3--|--------4--0--------|
------3----3----3--4--|---------------------|--------------------|



----------------------|---------------------|----------------------|
-------2----1----0----|---------------------|----------------------|
--0-------------------|----------------0----|------0----0-------3--|
----------------------|------3----4---------|----------------3-----|



--------------------|---------------------|------------0--0--1--1--|
--------------------|------2----1----0----|------4--4--------------|
--------4--0--------|---------------------|------------------------|
--------------------|---------------------|------------------------|



-----------------------|--------------------|---------------------|
--0--------------------|--------------------|------2----1----0----|
-------0----0-------3--|--------4--0--------|---------------------|
-----------------3-----|--------------------|---------------------|



------------------|-----------------------|--------------------|
------------------|-----------------------|--------------------|
------------------|-------0----0-------3--|--------4--0--------|
------------------|--3--------------3-----|--------------------|



----------------------|-------------------|--------------7----|
-------2----1----0----|--------------0----|-------------------|
--0-------------------|-------------------|-------------------|
----------------------|-------------------|-------------------|



----14------19--------|-------------------------|------------------------|
----------------------|-------------------------|-----------------2------|
----------------------|-------------------------|------------------------|
----------------------|----0-0-3--3--2--2--0----|--0--0--0--0--0---------|



------------------------|------------------------|----------------------|
-----------------2------|-----------------2------|----------------------|
------------------------|------------------------|--0----3----2----0----|
--0--0--0--0--0---------|--0--0--0--0--0---------|----------------------|



--2--2--2--0------------|--2--2--2--0------------|--2--2--2--0------------|
--------------2---------|--------------2---------|--------------2---------|
-----------------0------|-----------------0------|-----------------0------|
------------------------|------------------------|------------------------|



----------------------|------------------------|------------------------|
----------------------|-----------------2------|-----------------2------|
----------------------|------------------------|------------------------|
--0----3----2----0----|--0--0--0--0--0---------|--0--0--0--0--0---------|



------------------------|----------------------|--2--2--2--0------------|
-----------------2------|----------------------|--------------2---------|
------------------------|--0----3----2----0----|-----------------0------|
--0--0--0--0--0---------|----------------------|------------------------|



--2--2--2--0------------|--2--2--2--0------------|----------------------|
--------------2---------|--------------2---------|----------------------|
-----------------0------|-----------------0------|----------------------|
------------------------|------------------------|--0----3----2----0----|



------------------------|------------------------|------------------------|
-----------------2------|-----------------2------|-----------------2------|
------------------------|------------------------|------------------------|
--0--0--0--0--0---------|--0--0--0--0--0---------|--0--0--0--0--0---------|



----------------------|-------------------|-------------------|
----------------------|-------------------|-------------------|
--0----3----2----0----|-------------------|-------------------|
----------------------|--------------3----|--------------2----|



-------------------|--------------------|--------------------------|
-------------------|--------------------|--------------------------|
-------------------|--------------------|--------------------------|
--------------1----|--------------0--0--|--0--0--0--0--0--0--0--0--|



--------------------------|--------------------------|
--------------------------|--------------------------|
--------------------------|--------------------------|
--0--0--0--0--0--0--0--0--|--0--0--0--0--0--0--0--0--|



--------------------------|------------------------|---------------------|
--------------------------|------------------------|--2------------------|
--------------------0--2--|--2--0--2----0--2----0--|---------------0--2--|
--0--0--0--0--0--0--------|------------------------|---------------------|



------------------------|----------------------|------------------------|
------------------------|----------------------|------------------------|
--2--0--2----0--2----2--|--0-------------0--2--|--2--0--2----0--2----0--|
------------------------|-------2--------------|------------------------|



---------------------|------------------------|----------------------|
--2------------------|------------------------|----------------------|
---------------0--2--|--2--0--2----0--2----2--|--0-------------0--2--|
---------------------|------------------------|-------2--------------|



------------------------|---------------------|------------------------|
------------------------|--2------------------|------------------------|
--2--0--2----0--2----0--|---------------0--2--|--2--0--2----0--2----2--|
------------------------|---------------------|------------------------|



----------------------|------------------------|---------------------|
----------------------|------------------------|--2------------------|
--0-------------0--2--|--2--0--2----0--2----0--|---------------0--2--|
-------2--------------|------------------------|---------------------|



------------------------|----------------------|------------------------|
------------------------|----------------------|------------------------|
--2--0--2----0--2----2--|--0----------------0--|--0-----0-------0----0--|
------------------------|-------2--------3-----|-----3-------3----------|



---------------------|------------------------|-----------------------|
--0------------------|------------------------|-----------------------|
------------------0--|--0-----0-------0----0--|--------------------0--|
---------------3-----|-----3-------3----------|--3--4--0--------3-----|



------------------------|---------------------|------------------------|
------------------------|--0------------------|------------------------|
--0-----0-------0----0--|------------------0--|--0-----0-------0----0--|
-----3-------3----------|---------------3-----|-----3-------3----------|



-----------------------|-----------------------|-----------------------|
-----------------0--0--|--0--0--0--------0--0--|--0--0--0--------0--0--|
-----------------------|-----------------------|-----------------------|
--3--4--0--------------|-----------------------|-----------------------|



-----------------7--7--|--7--7--7--5------------|------------------------|
--0--0--0--------------|------------------------|------------------------|
-----------------------|---------------------0--|--0-----0-------0----0--|
-----------------------|------------------3-----|-----3-------3----------|



---------------------|------------------------|-----------------------|
--0------------------|------------------------|-----------------0--0--|
------------------0--|--0-----0-------0----0--|-----------------------|
---------------3-----|-----3-------3----------|--3--4--0--------------|



-----------------------|-----------------------|-----------------------|
--0--0--0--------0--0--|--0--0--0--------0--0--|--0--0--0--------0--0--|
-----------------------|-----------------------|-----------------------|
-----------------------|-----------------------|-----------------------|



-------------------------|--------------------|--------------------|
--0--0--0--0--0--0-------|------2--------2----|--1--------0--------|
-------------------------|--------------------|--------------------|
--------------------0----|--------------------|--------------------|



----------------------|---------------------|---------------------|
----------------------|---------------------|---------------------|
----------------------|--0----0------3------|----4--0--------0----|
--3----3----3--4------|---------------------|---------------------|



---------------------|---------------------|----------------------|
--2----1----0--------|---------------------|----------------------|
---------------------|------------0--------|--0----0-------3------|
---------------------|--3----4-------------|------------3---------|



--------------------|---------------------|--------0--0--1--1-------|
--------------------|--2----1----0--------|--4--4--------------0----|
----4--0------------|---------------------|-------------------------|
--------------------|---------------------|-------------------------|



----------------------|--------------------|---------------------|
----------------------|--------------------|--2----1----0--------|
--0----0-------3------|----4--0------------|---------------------|
------------3---------|--------------------|---------------------|



-------------------|----------------------|--------------------|
-------------------|----------------------|--------------------|
-------------------|--0----0-------3------|----4--0------------|
--------------3----|------------3---------|--------------------|



---------------------|----------------------|----------------------|
--2----1----0--------|----------------------|----------------------|
---------------------|------------0---------|--0----0-------3------|
---------------------|--3----4---------0----|------------3---------|



--------------------|---------------------|----------------------|
--------------------|--2----1----0--------|----------------------|
----4--0------------|---------------------|------------0---------|
--------------------|---------------------|--3----4---------0----|



----------------------|--------------------|---------------------|
----------------------|--------------------|--2----1----0--------|
--0----0-------3------|----4--0------------|---------------------|
------------3---------|--------------------|---------------------|



-------0----1---------|----------------------|--------------------|
--4--------------0----|----------------------|--------------------|
----------------------|--0----0-------3------|----4--0------------|
----------------------|------------3---------|--------------------|



---------------------|----------------------|----------------------|
--2----1----0--------|----------------------|----------------------|
---------------------|--3-------------------|--0----0-------3------|
---------------------|-------2----3----0----|------------3---------|



--------------------|---------------------|------------------|
--------------------|--2----1----0--------|------------------|
----4--0------------|---------------------|------------------|
--------------------|---------------------|------------------|



--------------------|------------------|------7----7--------|------------------|
------0----0--------|------------------|--------------------|------------------|
--------------------|------------------|--------------------|------------------|
--------------------|------------------|--------------------|------------------|



----------------------|-------------------||
----------------------|-------------------||
-----------------3----|------0------------||
--5----5--3-----------|-------------------||

Holy Crap Hard Song.



Get this song at amazon.com      Ebay     Ringtones Ringtones  


Learn to play: Songwriting, Piano, Harmonica, Guitar
Also available at Muzikum: Guns 'N' Roses - Your Crazy lyrics

Related Guns N Roses Bass Tabs

Slash's Sweet Child Of Mine Intro On Bass bass
Don' Cry bass
Welcome To The Jungle bass
Rocket Queen bass
Don't Cry (standard Tuning) bass
Somewhere Over The Rainbow bass
Pretty Tied Up bass
Civil War bass
Garden Of Eden (the Insane Version) bass
I Used To Love Her bass
Knocking On Heaven's Door bass
Bad Apples bass
So Fine bass
Bad Obsession bass
Out Ta Get Me bass
Dust N Bones bass
Locomotive bass
Coma (full Transcription) bass
Since I bass
Double Talkin Jive bass


Guitar Tabs









All tabs are property and copyright of their owners. All tabs provided for educational purposes only. Privacy Policy, DMCA

Online converter - videoconverter.com