Guns N Roses

You Could Be Mine Bass Tabs



More from Guns N Roses

Guns N Roses Tabs
Guns N Roses Chords
Guns N Roses Bass
Guns N Roses Lyrics



You Could Be Mine


Guns n Roses
BASS




F#||------------------|------------------|------------------|------------------|
C#||------------------|------------------|------------------|------------------|
G#||------------------|------------------|------------------|------------------|
D#||------------------|------------------|------------------|------------------|



------------------|-------------------------|----------------------------|
------------------|-------2--4--2-----------|----------------------------|
------------------|----2-----------3--2--0--|----------------------------|
------------------|-------------------------|--2--2--2--0-0-2--2--2--0-0-|



----------------------------|----------------------------|
----------------------------|----------------------------|
----------------------------|----------------------------|
--2--2--2--0-0-2--2--0--2-2-|--0--0--2--2-2-0--0--2--2-2-|



----------------------------|----------------------------|
----------------------------|----------------------------|
----------------------------|----------------------------|
--0--0--2--2-2-0--0--2--0-0-|--2--2--2--0-0-2--2--2--0-0-|



----------------------------|----------------------------|
----------------------------|----------------------------|
----------------------------|----------------------------|
--2--2--2--0-0-2--2--0--2-2-|--0--0--2--2-2-0--0--2--2-2-|



----------------------------|----------------------------|
----------------------------|----------------------------|
----------------------------|----------------------------|
--0--0--2--2-2-0--0--2--0-0-|--2--2--2--0-0-2--2--2--0-0-|



----------------------------|----------------------------|
----------------------------|----------------------------|
----------------------------|----------------------------|
--2--2--2--0-0-2--2--0--2-2-|--0--0--2--2-2-0--0--2--2-2-|



----------------------------|----------------------------|
----------------------------|----------------------------|
----------------------------|----------------------------|
--0--0--2--2-2-0--0--2--0-0-|--2--2--2--0-0-2--2--2--0-0-|



----------------------------|----------------------------|
----------------------------|----------------------------|
----------------------------|----------------------------|
--2--2--2--0-0-2--2--0--2-2-|--0--0--2--2-2-0--0--2--2-2-|



----------------------------|----------------------------|
----------------------------|----------------------------|
----------------------------|----------------------------|
--0--0--2--2-2-0--0--2--0-0-|--2--2--2--0-0-2--2--2--0-0-|



----------------------------|----------------------------|
----------------------------|----------------------------|
----------------------------|----------------------------|
--2--2--2--0-0-2--2--0--2-2-|--0--0--2--2-2-0--0--2--2-2-|



----------------------------|----------------------------|
----------------------------|----------------------------|
----------------------------|----------------------------|
--0--0--2--2-2-0--0--2--0-0-|--2--2--2--0-0-2--2--2--0-0-|



----------------------------|----------------------------|
----------------------------|----------------------------|
----------------------------|----------------------------|
--2--2--2--0-0-2--2--0--2-2-|--0--0--2--2-2-0--0--2--2-2-|



---------------------------|--------------------------|
---------------------------|--------------------------|
---------------------------|--------------------------|
--0--0--2--2-2-0--0--0--0--|--0--0--0--0--0--0--0--0--|



--------------------------|--------------------------|
--2--2--2--2--2--2--2--2--|--2--2--2--2--------2--2--|
--------------------------|--------------2--2--------|
--------------------------|--------------------------|



--------------------------|------------------------|-------------------------|
--2-----------------------|------------------------|-------------------------|
-----0--2--0--2--0--------|------------------------|----0--2--0--2--0--------|
--------------------2--0--|--2----2----0--2--0--2--|-------------------2--0--|



------------------------|-------------------------|-----------------0--1--|
------------------------|-------------------------|--------------4--------|
------------------------|----0--2--0--2--0--------|-----------------------|
--2----2----0--2--0--2--|-------------------2--0--|--0----0---------------|



-------------------------|------------------------|-------------------------|
-------------------------|------------------------|-------------------------|
----0--2--0--2--0--------|------------------------|----0--2--0--2--0--------|
-------------------2--0--|--2----2----0--2--0--2--|-------------------2--0--|



-------------------------|--------------------------|--------------------------|
-------------------------|--------------------------|--------------------------|
-------------------------|--------------------------|--------------------------|
--2----2--0--2--2--2--0--|--2--2--2--0--2--2--2--0--|--2--2--2--0--2--2--2--0--|



------------------------|--------------------------|--------------------------|
-----4----------3-------|--------------------------|--------------------------|
------------------------|--------------------------|--------------------------|
--2-------2--1-------1--|--0--0--0--0--0--0--0--0--|--0--0--0--0--0--0--0--0--|



-----------------------|--------------------------|--------------------------|
-----------------------|--------------------------|--------------------------|
-----------------------|-----0--2--0--2--0--------|--------------------------|
--2----2----2--2----2--|--2-----------------2--0--|--2--2--2--2--2--2--2--2--|



--------------------------|--------------------------|
--------------------------|--------------------------|
--------------------------|--------------------------|
--2--2--2--2--2--2--2--0--|--2--2--2--2--2--2--2--2--|



--------------------------|--------------------------|
--------------------------|--------------------------|
--------------------------|--------------------------|
--2--2--2--2--2--2--2--2--|--0--0--0--0--0--0--0--0--|



--------------------------|-------------------------|-------------------------|
--------------------------|-------------------------|-------------------------|
--------------------------|-------------------------|----0--2--0--2--0--------|
--0--0--0--0--0--0--0--0--|--2----2--2--2--2--2--2--|-------------------2--0--|



--------------------------|--------------------------|
--------------------------|--------------------------|
--0--0--0--0--0--0--0--0--|--2--2--2--2--2--2--2--2--|
--------------------------|--------------------------|



--------------------------|--------------------------|
--------------------------|--------------------------|
--------------------------|--------------------------|
--2--2--2--2--2--2--2--2--|--2--2--2--2--2--2--2--2--|



--------------------------|--------------------------|
--------------------------|--------------------------|
--0--0--0--0--0--0--0--0--|--2--2--2--2--2--2--2--0--|
--------------------------|--------------------------|



---------------------------|--------------------------|
-----------------------2-3-|--4--4--4--4--4--2--------|
---------------------------|--------------------4--2--|
--2--2--2--2--2--2--2------|--------------------------|



--------------------------|--------------------------|
--------------------------|--------------------------|
--0--0--0--0--0--0--0--0--|--2--2--2--2--2--2--2--0--|
--------------------------|--------------------------|



--------------------------|--------------------------|
--------------------------|--------------------------|
--------------------------|--------------------------|
--2--2--2--2--2--2--2--2--|--2--2--2--2--0--2--2--4--|



--------------------------|---------------------------|
--------------------------|-----------------------2-3-|
--0--0--0--0--0--0--0--0--|--2--2--2--2--2--2--2------|
--------------------------|---------------------------|



--------------------------|--------------------------|------------------------|
--4--2--------------------|--------------------------|------------------------|
--------4--3--2--0--------|-----0--2--0--2--0--------|------------------------|
--------------------2--0--|--2-----------------2--0--|--2----2----0--2--0--2--|



-------------------------|------------------------|-------------------------|
-------------------------|------------------------|-------------------------|
----0--2--0--2--0--------|------------------------|----0--2--0--2--0--------|
-------------------2--0--|--2----2----0--2--0--2--|-------------------2--0--|



-----------------0--1--|-------------------------|------------------------|
--------------4--------|-------------------------|------------------------|
-----------------------|----0--2--0--2--0--------|------------------------|
--0----0---------------|-------------------2--0--|--2----2----0--2--0--2--|



-------------------------|--------------------------|--------------------------|
-------------------------|--------------------------|--------------------------|
----0--2--0--2--0--------|--------------------------|--------------------------|
-------------------2--0--|--2--2--2--2--2--2--2--2--|--2--2--2--2--2--2--0--0--|



--------------------------|------------------------|--------------------------|
--------------------------|-----4----------3-------|--------------------------|
--------------------------|------------------------|--------------------------|
--2--2--2--2--2--2--2--2--|--2-------2--1-------1--|--0--0--0--0--0--0--0--0--|



--------------------------|-----------------------|--------------------------|
--------------------------|-----------------------|--------------------------|
--------------------------|-----------------------|-----0--2--0--2--0--------|
--0--0--0--0--0--0--0--0--|--2----2----2--2----2--|--2-----------------2--0--|



--------------------------|--------------------------|
--------------------------|--------------------------|
--------------------------|--------------------------|
--2--2--2--2--2--2--2--2--|--2--2--2--2--2--2--0--0--|



--------------------------|--------------------------|
--------------------------|--------------------------|
--------------------------|--------------------------|
--2--2--2--2--2--2--2--2--|--2--2--2--2--2--2--2--2--|



--------------------------|--------------------------|-------------------------|
--------------------------|--------------------------|-------------------------|
--------------------------|--------------------------|-------------------------|
--0--0--0--0--0--0--0--0--|--0--0--0--0--0--0--0--0--|--2----2--2--2--2--2--2--|



-------------------------|--------------------------|--------------------------|
-------------------------|--------------------------|--------------------------|
----0--2--0--2--0--------|--0--0--0--0--0--0--0--0--|--2--2--2--2--2--2--2--2--|
-------------------2--0--|--------------------------|--------------------------|



--------------------------|--------------------------|
--------------------------|--------------------------|
--------------------------|--------------------------|
--2--2--2--2--2--2--2--2--|--2--2--2--2--2--2--2--2--|



--------------------------|-------------------------|
--------------------------|-------------------------|
--0--0--0--0--0--0--0--0--|--2--2--2----2--2--2--0--|
--------------------------|-------------------------|



---------------------------|--------------------------|
-----------------------2-3-|--4--4--4--4--4--2--------|
---------------------------|--------------------4--2--|
--2--2--2--2--2--2--2------|--------------------------|



--------------------------|--------------------------|
--------------------------|--------------------------|
--0--0--0--0--0--0--0--0--|--2--2--2--2--2--2--2--0--|
--------------------------|--------------------------|



--------------------------|--------------------------|
--------------------------|--------------------------|
--------------------------|--------------------------|
--2--2--2--2--2--2--2--2--|--2--2--2--2--0--2--2--4--|



--------------------------|--------------------------|
--------------------------|--------------------------|
--0--0--0--0--0--0--0--0--|--2--2--2--2--2--2--2--2--|
--------------------------|--------------------------|



--------------------------|---------------------|----------------------------|
--------------------------|---------------------|----------------------------|
--4--4--4--4--4--4--4--4--|--4------------------|----------------------------|
--------------------------|-----------------0-0-|--2--2--2--0-0-2--2--2--0-0-|



----------------------------|----------------------------|
----------------------------|----------------------------|
----------------------------|----------------------------|
--2--2--2--0-0-2--2--0--2-2-|--0--0--2--2-2-0--0--2--2-2-|



----------------------------|----------------------------|
----------------------------|----------------------------|
----------------------------|----------------------------|
--0--0--2--2-2-0--0--2--0-0-|--2--2--2--0-0-2--2--2--0-0-|



----------------------------|----------------------------|
----------------------------|----------------------------|
----------------------------|----------------------------|
--2--2--2--0-0-2--2--0--2-2-|--0--0--2--2-2-0--0--2--2-2-|



----------------------------|----------------------------|
----------------------------|----------------------------|
----------------------------|----------------------------|
--0--0--2--2-2-0--0--2--0-0-|--2--2--2--0-0-2--2--2--0-0-|



----------------------------|----------------------------|
----------------------------|----------------------------|
----------------------------|----------------------------|
--2--2--2--0-0-2--2--0--2-2-|--0--0--2--2-2-0--0--2--2-2-|



----------------------------|----------------------------|
----------------------------|----------------------------|
----------------------------|----------------------------|
--0--0--2--2-2-0--0--2--0-0-|--2--2--2--0-0-2--2--2--0-0-|



----------------------------|----------------------------|
----------------------------|----------------------------|
----------------------------|----------------------------|
--2--2--2--0-0-2--2--0--2-2-|--0--0--0--2-2-0--0--0--2-2-|



---------------------------|--------------------------|
---------------------------|--------------------------|
---------------------------|--------------------------|
--0--0--0--2-2-0--0--0--0--|--3--3--3--3--3--3--3--3--|



--------------------------|------------------------|------------------------|
--------------------------|---------------0--0-----|------------------------|
--------------------------|--0----0----0--------0--|--0----0----0--0--0--0--|
--2--2--2--2--3--3--3--3--|------------------------|------------------------|



--------------------------|--------------------------|------------------------|
--------------------------|--------------------------|---------------0--0-----|
--------------------------|--------------------------|--0----0----0--------0--|
--3--3--3--3--3--3--3--3--|--2--2--2--2--3--3--3--3--|------------------------|



------------------------|--------------------------|--------------------------|
------------------------|--------------------------|--------------------------|
--0----0----0--0--0--0--|--------------------------|-----------------------0--|
------------------------|--3--3--3--3--3--3--3--3--|--2--2--2--2--3--3--3-----|



--------------------------|--------------2--2--2-----|------------0---------|
--------------------------|--------------------------|-------0--------------|
--2--2--2--2--2--2--2--2--|--0--0--0--0-----------0--|----------------------|
--------------------------|--------------------------|--3----------------0--|



--------------------------|-------------------------|------------------------|
--------------0--0--0-----|-------------------------|------------0--0--------|
-----------------------2--|----2--2--0--2--2--0--2--|----2--2----------0--2--|
--2--0--1--2--------------|-------------------------|------------------------|



-------------------------|------------------------|-------------------------|
-------------------------|------------0--0--0-----|-------------------------|
----2--2--0--2--2--0--2--|----2--2-------------0--|----0--0--0--0--------0--|
-------------------------|------------------------|----------------3--3-----|



------------------------|-------------------------|------------------------|
------------0--0--------|-------------------------|------------0--0--------|
----0--0----------0--2--|----2--2--0--2--2--0--2--|----2--2----------0--2--|
------------------------|-------------------------|------------------------|



-------------------------|------------------------|-------------------------|
-------------------------|------------0--0--------|-------------------------|
----2--2--0--2--0--1--2--|----2--2----------0--2--|----2--0--1--2--2--0--1--|
-------------------------|------------------------|-------------------------|



--------------------------|-------------------0--2--|----0--------------------|
--------------0--0--0-----|----------------2--------|-------2-----0--0--------|
--2--2--2--0-----------0--|----0--0--0--0-----------|----------0--------4--2--|
--------------------------|-------------------------|-------------------------|



-------------------------|-------4-----4-----4-----|--------------------------|
-------------------------|-------------------------|--------------------------|
----2--2--0--2--0--1--2--|----2-----2-----2-----2--|--2--2--2--2--2--2--2--0--|
-------------------------|-------------------------|--------------------------|



--------------------------|--------------------------|------------------------|
--------------------------|--0--0--0--0--0--0--0--0--|--0--0--0--0--0---------|
--4--4--4--4--4--4--4--0--|--------------------------|-------------------0----|
--------------------------|--------------------------|------------------------|



--------------------------|--------------------------|
--------------------------|--------------------------|
--2--2--2--2--2--2--2--0--|--4--4--4--4--4--4--4--0--|
--------------------------|--------------------------|



--------------------------|------------------------|
--0--0--0--0--0--0--0--0--|--0--0--0--0--0---------|
--------------------------|-------------------0----|
--------------------------|------------------------|



------------------------------|------------------------------|
------------------------------|------------------------------|
--2--0-0-2--0-0-2--0-0-2--0-0-|--4--2-2-4--2-2-4--2-2-4--0-0-|
------------------------------|------------------------------|



------------------------------|--------------------------|
--0------0------0------0------|--0------0------0---------|
-----4-4----4-4----4-4----4-4-|-----4-4----4-4------4----|
------------------------------|--------------------------|



------------------------------|------------------------------|
------------------------------|------------------------------|
--2--0-0-2--0-0-2--0-0-2--0-0-|--4--2-2-4--2-2-4--2-2-4--0-0-|
------------------------------|------------------------------|



-------------------7--7--7--|--7-7-7-7-7--7-7-7-7-7--6----|
--0--0-0-0--0-0-4-----------|-----------------------------|
----------------------------|-----------------------------|
----------------------------|-----------------------------|



--------------------------|--------------------------|
--------------------------|--------------------------|
--------------------------|--2--2--2--2--2--2--2--2--|
--5--5--5--5--5--5--5--5--|--------------------------|



--------------------------|--------------------------|
--------------------------|--------------------------|
--------------------------|--------------------------|
--2--2--2--2--2--2--2--2--|--2--2--2--2--2--2--2--2--|



--------------------------|-------------------------|
--------------------------|-------------------------|
--0--0--0--0--0--0--0--0--|--2--2--2----2--2--2--0--|
--------------------------|-------------------------|



---------------------------|--------------------------|
-----------------------2-3-|--4--4--4--4--4--2--------|
---------------------------|--------------------4--2--|
--2--2--2--2--2--2--2------|--------------------------|



--------------------------|--------------------------|
--------------------------|--------------------------|
--0--0--0--0--0--0--0--0--|--2--2--2--2--2--2--2--0--|
--------------------------|--------------------------|



--------------------------|--------------------------|
--------------------------|--------------------------|
--------------------------|--------------------------|
--2--2--2--2--2--2--2--2--|--2--2--2--2--0--2--2--4--|



--------------------------|--------------------------|
--------------------------|--------------------------|
--0--0--0--0--0--0--0--0--|--2--2--2--2--2--2--2--2--|
--------------------------|--------------------------|



--------------------------|--------------------------|
--------------------------|--------------------------|
--0--0--0--0--0--0--0--0--|--2--2--2--2--2--2--2--2--|
--------------------------|--------------------------|



--------------------------|-------------------------|------------------------|
--------------------------|-------------------------|------------------------|
--0--0--0--0--0--0--0--0--|----0--2--0--2--0--------|------------------------|
--------------------------|-------------------2--0--|--2----2----0--2--0--2--|



-------------------------|------------------------|-------------------------|
-------------------------|------------------------|-------------------------|
----0--2--0--2--0--------|------------------------|----0--2--0--2--0--------|
-------------------2--0--|--2----2----0--2--0--2--|-------------------2--0--|



------------------------|-------------------------|------------------------|
------------------------|-------------------------|------------------------|
------------------------|----0--2--0--2--0--------|------------------------|
--2----2----0--2--0--2--|-------------------2--0--|--2----2----0--2--0--2--|



-------------------------|------------------------|-------------------------|
-------------------------|------------------------|-------------------------|
----0--2--0--2--0--------|------------------------|----0--2--0--2--0--------|
-------------------2--0--|--2----2----0--2--0--2--|-------------------2--0--|



------------------------|-------------------------|------------------------|
------------------------|-------------------------|------------------------|
------------------------|----0--2--0--2--0--------|------------------------|
--2----2----0--2--0--2--|-------------------2--0--|--2----2----0--2--0--2--|



-------------------------|------------------------|-------------------------|
-------------------------|------------------------|-------------------------|
----0--2--0--2--0--------|------------------------|----0--2--0--2--0--------|
-------------------2--0--|--2----2----0--2--0--2--|-------------------2--0--|



-------------------||
-------------------||
-------------------||
--2----------------||









Get this song at amazon.com      Ebay     Ringtones Ringtones  


Learn to play: Songwriting, Piano, Harmonica, Guitar
Also available at Muzikum: Guns 'N' Roses - You could be mine lyrics

Related Guns N Roses Bass Tabs

Garden Of Eden (the Normal Version) bass
Bad Apples bass
Don't Cry (standard Tuning) bass
Youre Crazy bass
Attitude bass
So Fine bass
Pretty Tied Up bass
Think About You bass
Yesterdays bass
Since I bass
Civil War bass
I Used To Love Her bass
Sweet Childo'mine bass
Knockin on heavans door bass
Sweet Child O Mine Bass Tab bass
Breakdown bass
Ain`t It Fun bass
Get In The Ring bass
Double Talkin Jive bass
Raw Power bass


Guitar Tabs









All tabs are property and copyright of their owners. All tabs provided for educational purposes only. Privacy Policy, DMCA