Guns N Roses

Word Up Bass Tabs



More from Guns N Roses

Guns N Roses Tabs
Guns N Roses Chords
Guns N Roses Bass
Guns N Roses Lyrics




graeme

5-String Bass [H-E-A-D-G)

1 2 3 4 1 2 3 4 1 2 3 4 1 2 3 4
G|----------------|----------------|----------------|----------------|
D|----------------|----------------|----------------|----------------|
A|----------------|----------------|----------------|----------------| 13x
E|----------------|----------------|----------------|----------------|
H|7-----7---------|5-5---5---------|3-----3-5-----5-|7-7---7---------|



1 2 3 4 1 2 3 4 1 2 3 4 1 2 3 4
G|----------------|----------------|----------------|----------------|
D|----------------|----------------|----------------|----------------|
A|----------------|----------------|----------------|----------------| 2x
E|----------------|----------------|----------------|----------------|
H|7-----7--------7|7-----7---------|7-----7--------7|7-----7---------|



1 2 3 4 1 2 3 4 1 2 3 4 1 2 3 4
G|----------------|----------------|----------------|----------------|
D|----------------|----------------|----------------|----------------|
A|----------------|----------------|----------------|----------------| 4x
E|----------------|----------------|----------------|----------------|
H|7-----7---------|5-5---5---------|3-----3-5-----5-|7-7---7---------|



1 2 3 4 1 2 3 4 1 2 3 4 1 2 3 4
G|----------------|----------------|----------------|----------------|
D|----------------|----------------|----------------|----------------|
A|----------------|----------------|----------------|----------------| 2x
E|----------------|----------------|----------------|----------------|
H|7-----7-----8---|7-----7-----8---|7-----7-----8---|7-----7-----8---|



1 2 3 4 1 2 3 4 1 2 3 4 1 2 3 4
G|----------------|----------------|----------------|----------------|
D|----------------|----------------|----------------|----------------|
A|----------------|----------------|----------------|----------------| 8x
E|----------------|----------------|----------------|----------------|
H|7-----7---------|5-5---5---------|3-----3-5-----5-|7-7---7---------|



4-String Bass [E-A-D-G]

1 2 3 4 1 2 3 4 1 2 3 4 1 2 3 4
G|----------------|----------------|----------------|----------------|
D|----------------|----------------|0-----0-2-----2-|----------------|
A|----------------|----------------|----------------|----------------| 13x
E|2-----2---------|0-0---0---------|-------(0)---(0)|2-2---2---------|



1 2 3 4 1 2 3 4 1 2 3 4 1 2 3 4
G|----------------|----------------|----------------|----------------|
D|----------------|----------------|----------------|----------------|
A|----------------|----------------|----------------|----------------| 2x
E|2-----2--------2|2-----2---------|2-----2--------2|2-----2---------|



1 2 3 4 1 2 3 4 1 2 3 4 1 2 3 4
G|----------------|----------------|----------------|----------------|
D|----------------|----------------|0-----0-2-----2-|----------------|
A|----------------|----------------|----------------|----------------| 4x
E|2-----2---------|0-0---0---------|-------(0)---(0)|2-2---2---------|



1 2 3 4 1 2 3 4 1 2 3 4 1 2 3 4
G|----------------|----------------|----------------|----------------|
D|----------------|----------------|----------------|----------------|
A|----------------|----------------|----------------|----------------| 2x
E|2-----2-----3---|2-----2-----3---|2-----2-----3---|2-----2-----3---|



1 2 3 4 1 2 3 4 1 2 3 4 1 2 3 4
G|----------------|----------------|----------------|----------------|
D|----------------|----------------|0-----0-2-----2-|----------------|
A|----------------|----------------|----------------|----------------| 8x
E|2-----2---------|0-0---0---------|-------(0)---(0)|2-2---2---------|



Get this song at amazon.com      Ebay     Ringtones Ringtones  


Learn to play: Songwriting, Piano, Harmonica, Guitar
Also available at Muzikum: Guns 'N' Roses - Word Up lyrics

Related Guns N Roses Bass Tabs

Knocking On Heavens Door bass
Don't Cry (standard Tuning) bass
Pretty Tied Up bass
Don' Cry bass
Mr Brownstone bass
Garden Of Eaden bass
Shotgun Blues bass
Hair Of The Dog bass
Word Up bass
14 Years bass
Double Talkin Jive bass
Youre Crazy bass
Dead Horse bass
Dust N Bones bass
Attitude bass
Somewhere Over The Rainbow bass
Immigrants And Faots bass
Dont Damn Me bass
Paradise City (standard Tuning) bass
Welcom To The Jungle(out Of The Big Gold Book) bass


Guitar Tabs









All tabs are property and copyright of their owners. All tabs provided for educational purposes only. Privacy Policy, DMCA