Guns N Roses

Welcom To The Jungle(out Of The Big Gold Book) Bass Tabs



More from Guns N Roses

Guns N Roses Tabs
Guns N Roses Chords
Guns N Roses Bass
Guns N Roses Lyrics




Play this song flat

s = slide
h = hammer-on
p = pull-off
H = hold/ring
b = bend

This is a song which takes a while to remember, because there
are so many different parts,
but once you do learn the whole thing, you know you've kinda reached
a good/medium level
of bass playing. Here's a version I wrote so you don't get confused.

INTRO: (Come in at 00:09 sec during guitar delay)
F#----------------------------------------------------
C#-------------------------------------0-1-2----------
G#-----------------2------0---------------------------
D#-----------------------------12s3-------------------

F#--2-3-4444444444444444-22222222222222-------------------------------------------2-3-4-4
C#--------------------------------------22222222222-2-2-0-----------------------4--------
G#---------------------------------------------------------0--2-2-2-2-2-2-2-2-2----------
D#---------------------------------------------------------------------------------------

D#--3s12s3--

PRE VERSE:
F#--------------------------------------------------------------------------
C#-------------------------------------------------------------------5-5-55-
G#--------------------------------------------------------------------------
D#--5-55-3-555-3-2-0--5-55-3-555-3-2-0--5-55-3-555-3-2-0--5-55-3-555--------

VERSE: "Welcome to the Jungle, we've got fun and games..."
F#--------------------------------------------------------------------------
C#--------------------------------------------------------------------------
G#--------------------------------------------------------------------------
D#--5-55-3-555-3-2-0--5-55-3-555-3-2-0--5-55-3-555-3-2-0--5-55-3-555-3-2-0--

"We are the people that can find..."
F#--------------------------------------------------------------------------
C#--------------------------------------------------------------------------
G#--7-77-5-777-5-4----7-77-5-777-5-4----7-77-5-777-5-4----7-77-5-777-5-4----
D#-----------------7-----------------7-----------------7-----------------7--

CHORUS: "In the Jungle, welcome to the jungle..."
F#--------------------------------------------------------------------------------
C#--------------------------------------------------------------------------------
G#--3--3--3---3----5--5--5---5----7-7-5-5---------7-7-5-5---------7-7-5-5---------
D#----------5---5----------5---5----------6-5-3-0---------6-5-3-0---------6-5-3-0-

F#-------------------
C#-------------------
G#--7---5------------
D#----------6--5-3-0-

VERSE 2: "Welcome to the Jungle, we take it day by day..."
F#--------------------------------------------------------------------------
C#--------------------------------------------------------------------------
G#--------------------------------------------------------------------------
D#--5-55-3-555-3-2-0--5-55-3-555-3-2-0--5-55-3-555-3-2-0--5-55-3-555-3-2-0--

"And you're a very sexy girl..."
F#--------------------------------------------------------------------------
C#--------------------------------------------------------------------------
G#--7-77-5-777-5-4----7-77-5-777-5-4----7-77-5-777-5-4----7-77-5-777-5-4----
D#-----------------7-----------------7-----------------7-----------------7--

CHORUS 2:
F#--------------------------------------------------------------------------------
C#--------------------------------------------------------------------------------
G#--3--3--3---3----5--5--5---5----7-7-5-5---------7-7-5-5---------7-7-5-5---------
D#----------5---5----------5---5----------6-5-3-0---------6-5-3-0---------6-5-3-0-

F#-------------------
C#--------------9----
G#-----------7s9-----
D#--7--7--7----------

SOLO 1:
F#-------------------------------------------------------------------
C#-------------------------------------------------------------------
G#----4h5-----7---7---4h5------------4h5-----7---7---4h5-------------
D#--0-----0-0---0---0-----0-0-333--0-----0-0---0---0-----0-0-333-----

F#-------------------------------------------------------------------
C#----------------------------5---5---------------------------5-5-55-
G#----4h5-----7---7---4h5-------------4h5-----7---7---4h5------------
D#--0-----0-0---0---0-----0-3---3---0-----0-0---0---0-----0-0--------

VERSE 3: "Welcome to the Jungle, it gets worse here everyday..."
F#--------------------------------------------------------------------------
C#--------------------------------------------------------------------------
G#--------------------------------------------------------------------------
D#--5-55-3-555-3-2-0--5-55-3-555-3-2-0--5-55-3-555-3-2-0--5-55-3-555-3-2-0--

"If you've got a hunger for what you see..."
F#--------------------------------------------------------------------------
C#--------------------------------------------------------------------------
G#--7-77-5-777-5-4----7-77-5-777-5-4----7-77-5-777-5-4----7-77-5-777-5-4----
D#-----------------7-----------------7-----------------7-----------------7--

CHORUS 3:
F#--------------------------------------------------------------------------------
C#--------------------------------------------------------------------------------
G#--3--3--3---3----5--5--5---5----7-7-5-5---------7-7-5-5---------7-7-5-5---------
D#----------5---5----------5---5----------6-5-3-0---------6-5-3-0---------6-5-3-0-

F#-------------------
C#-------------------
G#--7---5------------
D#----------6--5-3-0-

BRIDGE:
F#------------------------------------------------------
C#------------------------------3s5---------------------
G#--5-----------5----------3s5------0-3-4-5--5-3-5------
D#--------3-----------3----------------------------5-0--

F#------------------------------------------------------------
C#----------------------------------------------------7-7-7-7-
G#------------------------------------------------------------
D#--3-3-3-3-3--1--3-3-3-3-3--1--3-3-3-3-3--1--5-5-5-5---------

SOLO 2:
F#----------------------------------------------------------------
C#----------------------------------------------------------------
G#----4h5-----7---7---4h5------------4h5-----7---7---4h5----------
D#--0-----0-0---0---0-----0-0-333--0-----0-0---0---0-----0-0-3333-

F#-----------------------------------------------------------------
C#-----------------------------------------------------------------
G#--4-2-4-2-4-2-4--2-0-2-0-2-0-2-0--4-2-4-2-4-2-4--2-0-2-0-2-0-2-0-
D#-----------------------------------------------------------------

F#---------------------------------------------------------
C#-----------------------------------2-------2-------2---2-
G#--4-2-4-2-4-2-4--2-0-2-0-2-------------------------------
D#---------------------------3-2-0-0---0-0-0---0-0-0---0---

F#--------------------------4-2--------------------------------
C#------------------0-----------4--2-2-0---0-2-0-2-2-0---0-2-0-
G#--0-1-2-2-0---0-2---2-2-2--------------2-------------2-------
D#------------2------------------------------------------------

F#--------------------------------------------------------------------------
C#------------------------------------------2-3-4-4-4-4-4-2-----------------
G#--2-2-2--2-2-2--2-2-2-2-2-0-------------------------------4---2-slide-14--
D#----------------------------2-2-2-2-2-2-2-------------------0-------------

BASS SOLO: (The speed takes a while to adjust to)
F#--------------------------------------------------------------------
C#--------------------------------------------------------------------
G#----------------------------------------------7777-666-555-44-33-22-
D#--0000-111-222-11-22-33-2222-333-555-44-55-66-----------------------

F#-------------------------
C#-------------------------
G#--7777-666-555-44-33-22-- 8 more times
D#-------------------------

F#-------------------------
C#-------------------------
G#-------------------------
D#--2--1--2--3--5--4--5--6-

CHORUS 4:
F#-----------------------------------------------------------------
C#-----------------------------------------------------------------
G#--3--3--3---3----5--5--5---5----7-7-5-5---------7-7-5-5----------
D#----------5---5----------5---5----------6-5-3-0---------6-5-3-0-- x3

F#-----------------------------------------------------------------------------
C#-----------------------------------------------------------------------------
G#--3--3--3---3----5--5--5---5----7---5-------------------------7H-------------
D#----------5---5----------5---5----------6--5-3-0--5--3--0-----0H-------------



Get this song at amazon.com      Ebay     Ringtones Ringtones  


Learn to play: Songwriting, Piano, Harmonica, Guitar
More Guns 'N' Roses lyrics available at Muzikum

Related Guns N Roses Bass Tabs

Paradise City (standard Tuning) bass
Down On The Farm bass
Live N Let Die bass
Guns N Roses Live And Let Die Ver 2 bass
Patience (live) bass
Word Up bass
Civil War bass
I Dont Care About You bass
Sweet Child O Mine bass
Paradise City (easy Version) bass
Welcome To The Jungle Bass Tab bass
Paradise City bass
My Michelle bass
Knockin on heavans door bass
Bass Solo bass
Rocket Queen bass
Right Next Door To Hell bass
It s so easy bass
Somewhere Over The Rainbow bass
Immigrants And Faots bass


Guitar Tabs









All tabs are property and copyright of their owners. All tabs provided for educational purposes only. Privacy Policy, DMCA