Guns N Roses

There Was A Time Tabs



More from Guns N Roses

Guns N Roses Tabs
Guns N Roses Chords
Guns N Roses Bass
Guns N Roses Lyrics



Guns N' Roses - THERE WAS A TIME

Guitar Tablature done in Notepad by: bi0h4z4rd



NOTES:

You can see me play it here: tabs-database.com[http://www.tabs-database.com.com/]



KEY:

h = hammer on

p = pull off

^ = bend up

~~ = vibrato

/ = slide

(bd) = bend up and down a few times



Solo #1 by Robin Finke (Standard Tuning: e-E)



e-------1h2---------1h2-1/2--0----------------------|

b--3^~~-----3^~~----------------1-3(bd)-1~~---------|

g---------------------------------------------------|

D---------------------------------------------------|

A---------------------------------------------------|

E---------------------------------------------------|





e-------1h2---------1h2-1/2--0----------------------|

b--3^~~-----3^~~----------------1/6^/7~~------------|

g---------------------------------------------------|

D---------------------------------------------------|

A---------------------------------------------------|

E---------------------------------------------------|





e--7p5~~--7------5-9(bd)-5------5h7~~--10p9p7~~----5h7--------------|

b-----------8~~------------6~~-------------------------7^(hold)^^^--|

g-------------------------------------------------------------------|

D-------------------------------------------------------------------|

A-------------------------------------------------------------------|

E-------------------------------------------------------------------|Added by tabs-database.com and our distinguished partners
Get this song at amazon.com      Ebay     Ringtones Ringtones  


Learn to play: Songwriting, Piano, Harmonica, Guitar
Also available at Muzikum: Guns 'N' Roses - There was a time lyrics

Related Guns N Roses Tabs

Better Bass tabs
Use Your Illusion 2 Album tabs
Out Ta Get Me tabs
Get In The Ring tabs
Live Tabs tabs
Yesterday tabs
Bad Obsession tabs
Blues tabs
Train Kept A Rollin tabs
Paridise City tabs
Nightrain Intro tabs
Oh My God tabs
Coversongs Collection tabs
November Rain Lead Guitar tabs
Black Leather tabs
November Rain Acoustic Tab tabs
So Fine tabs
Night Train tabs
Talkin Double Jive tabs
Knockin On Heavens Door tabs


Guitar Tabs









All tabs are property and copyright of their owners. All tabs provided for educational purposes only. Privacy Policy, DMCA

Online converter - videoconverter.com