Guns N Roses

The Godfather Theme Tabs



More from Guns N Roses

Guns N Roses Tabs
Guns N Roses Chords
Guns N Roses Bass
Guns N Roses Lyrics

|----------------------------------------------------------------|

|-15---14-15-16--15-15---------15---14-15-16--15-15--------------|

|----------------------15---------------------------14-----------|

|----------------------------------------------------------------|

|----------------------------------------------------------------|

|----------------------------------------------------------------|

^

|----------------------------------------------------------------|

|-15---14-15-18--15-14-15-(15)---14-------------14---------------|

|----------------------------------------14-------------14-------|

|----------------------------------------------------------------|

|----------------------------------------------------------------|

|----------------------------------------------------------------|



|----10-13-12-10-13-10-12-10-------------------------------------|

|-10-------------------------11-13-10----------------------------|

|----------------------------------------------------------------|

|----------------------------------------------------------------|

|----------------------------------------------------------------|

|----------------------------------------------------------------|



|----10-13-12-10-13-10-12-10-------------------------------------|

|-10-------------------------/10-9-8-----------------------------|

|----------------------------------------------------------------|

|----------------------------------------------------------------|

|----------------------------------------------------------------|

|----------------------------------------------------------------|



|-------------------6-9-9----------------------------------------|

|----6-10-10-----/8---------------13-11-10-13-11-10-10-----------|

|-/7---------------------------10--------------------------------|

|--------------------------12---------------------------11-12---|

|----------------------------------------------------------------|

|----------------------------------------------------------------|



|-10-10-9-8-10/12-10-----------------------------------------10--|

|--------------------11-10----10-13-10-8----8-11-9-10-----10-----|

|----------------------------------------------------------------|

|----------------------------------------------------------------|

|----------------------------------------------------------------|

|----------------------------------------------------------------|

^^^ ^^^ ^^^

|-131210--131210--131210------/------------------------------------|

|------------------------------12--12--12-12-10-12-10-9-10-12-10-9-|

|------------------------------------------------------------------|

|------------------------------------------------------------------|

|------------------------------------------------------------------|

|------------------------------------------------------------------|



|-13-12-10-9-10-12-10-9----9-------------------------------------|

|-----------------------10---10-12-10-9----9----12---------------|

|---------------------------------------11---11----11-9----9-----|

|-------------------------------------------------------11---11--|

|----------------------------------------------------------------|

|----------------------------------------------------------------|



|-----------------------------9-10-------------------------------|

|--------13-11-10-13-11-10-10------------------------------------|

|-----10---------------------------------------------------------|

|--12------------------------------------------------------------|

|----------------------------------------------------------------|

|----------------------------------------------------------------|

Get this song at amazon.com      Ebay     Ringtones Ringtones  


Learn to play: Songwriting, Piano, Harmonica, Guitar
More Guns 'N' Roses lyrics available at Muzikum

Related Guns N Roses Tabs

Big Dumb Sex tabs
Its So Easy tabs
Out Ta Get Me tabs
Look At Your Game Girl tabs
Chinese Democracy Intro tabs
Down On The Farm tabs
Civil War Solo tabs
Wild Horses Live In Tokyo Solo tabs
Paradise City tabs
Use Your Illusion 1 Album tabs
Only Women Bleed tabs
The Blues tabs
Live And Let Die (greatest Hits) tabs
Yeasterdays tabs
You Cant Put Your Arms tabs
Sweet Child O Mine Intro tabs
Get In The Ring tabs
Outta Get Me tabs
Shadow Of Your Love tabs
Welcome To The Jungle Solo tabs


Guitar Tabs









All tabs are property and copyright of their owners. All tabs provided for educational purposes only. Privacy Policy, DMCA