Guns N Roses

The Garden Bass Tabs



More from Guns N Roses

Guns N Roses Tabs
Guns N Roses Chords
Guns N Roses Bass
Guns N Roses Lyrics




F#||------|------------------|----------------9-10-|--11----9--7------7-5-----|
C#||------|------------------|---------------------|----------------------7-5-|
G#||------|------------------|---------------------|--------------------------|
D#||------|------------------|---------------------|--------------------------|



-------------------------|--------------------------|--------------------------|
-------------------------|--4-0---------------------|--3-0---------------------|
--5------------3h5h3---0-|----------------3h5h3---0-|----------------3h5h3---0-|
---------------------4---|----------------------4---|----------------------4---|



--------------------------|--------------------------|
--3-0---------------------|--4-0---------------------|
----------------3h5h3---0-|----------------3h5h3---0-|
----------------------4---|----------------------4---|



-----------------------------|-----------------------------|
--4--------------------------|--3--------------------------|
----5---5--5-5-----3h5h3---0-|----5---5--5-5-----3h5h3---0-| X6
-------------------------4---|-------------------------4---|

------------------------------|----------------------------|
------------------------------|----------------------------|
------9--10--9------9--10--9--|-----9--10--9-----9--10--9--|
--10------------10------------|--8------------8------------|



----------------------------|------------------------------|
----------------------------|------------------------------|
-----9--10--9-----9--10--9--|------9--10--9------9--10--9--|
--7------------7------------|--10------------10------------|



------------------------------|----------------------------|
------------------------------|----------------------------|
------9--10--9------9--10--9--|-----9--10--9-----9--10--9--|
--10------------10------------|--8------------8------------|



----------------------------|-----------------------------|
----------------------------|-----------------------------|
-----9--10--9-----9--10--9--|------9--10--9------9--------|
--7------------7------------|--10------------10-----10/---|



-----------------------------|---------------------------|
----------------------2/3-3--|---------------------------|
--3/5-5--5---5---------------|--5/7-7--7---7-x-3--x-3----| X4
---------------x-1--x--------|---------------------------|


------------------------------|----------------------------|
------------------------------|----------------------------|
------9--10--9------9--10--9--|-----9--10--9-----9--10--9--|
--10------------10------------|--8------------8------------|



----------------------------|------------------------------|
----------------------------|------------------------------|
-----9--10--9-----9--10--9--|------9--10--9------9--10--9--|
--7------------7------------|--10------------10------------|



------------------------------|----------------------------|
------------------------------|----------------------------|
------9--10--9------9--10--9--|-----9--10--9-----9--10--9--|
--10------------10------------|--8------------8------------|



----------------------------|-----------------------------|
----------------------------|-----------------------------|
-----9--10--9-----9--10--9--|------9--10--9------9--------|
--7------------7------------|--10------------10-----10/---|



-----------------------------|---------------------------|
----------------------2/3-3--|---------------------------|
--3/5-5--5---5---------------|--5/7-7--7---7-x-3--x-3----| X6
---------------x-1--x--------|---------------------------|

----------------------|----------------------|
--0----------10-9-----|--12------10----------|
----------------------|----------------------|
----------------------|----------------------|



----------------------------------|--------------------|
--12-10----10-------12--10--------|--------------------|
--------12-----------------12-10--|--------------------|
----------------------------------|--10----------------|



-----------------------------|-----------------------------|
--4--------------------------|--3--------------------------|
----5---5--5-5-----3h5h3---0-|----5---5--5-5-----3h5h3---0-|
-------------------------4---|-------------------------4---|



-----------------------------|-----------------------------|
--3--------------------------|--4--------------------------|
----5---5--5-5-----3h5h3---0-|----5---5--5-5-----3h5h3---0-|
-------------------------4---|-------------------------4---|



-----------------------------|-----------------------------|
--4--------------------------|--3--------------------------|
----5---5--5-5-----3h5h3---0-|----5---5--5-5-----3h5h3---0-|
-------------------------4---|-------------------------4---|



-----------------------------|-----------------------------|
--3--------------------------|--4--------------------------|
----5---5--5-5-----3h5h3---0-|----5---5--5-5-----3h5h3---0-|
-------------------------4---|-------------------------4---|



------------------------------|----------------------------|
------------------------------|----------------------------|
------9--10--9------9--10--9--|-----9--10--9-----9--10--9--|
--10------------10------------|--8------------8------------|



----------------------------|-----------------------------|
----------------------------|-----------------------------|
-----9--10--9-----9--10--9--|------9--10--9------9--------|
--7------------7------------|--10------------10-----10/---|



-----------------------------|---------------------------|
----------------------2/3-3--|---------------------------|
--3/5-5--5---5---------------|--5/7-7--7---7-x-3--x-3----| X17
---------------x-1--x--------|---------------------------|



-----------------------------||
----------------------2/3-3--||
--3/5-5--5---5---------------||
---------------x-1--x--------||



Get this song at amazon.com      Ebay     Ringtones Ringtones  


Learn to play: Songwriting, Piano, Harmonica, Guitar
Also available at Muzikum: Guns 'N' Roses - The garden lyrics

Related Guns N Roses Bass Tabs

Locomotive bass
It s so easy bass
Somewhere Over The Rainbow bass
Garden Of Eden (the Normal Version) bass
Paradise City (easy Version) bass
Big Dumb Sex bass
Paradise City (standard Tuning) bass
I Used To Love Her bass
Estranged bass
My Michelle bass
Garden Of Eden bass
Sweet Child O Mine Bass Tab bass
Word Up bass
Think About It bass
Ain`t It Fun bass
Dead Horse bass
Dust N Bones bass
Youre Crazy bass
Garden Of Eden (the Insane Version) bass
Shot Gun Blues bass


Guitar Tabs









All tabs are property and copyright of their owners. All tabs provided for educational purposes only. Privacy Policy, DMCA