Guns N Roses

Sweet Childo'mine Bass Tabs



More from Guns N Roses

Guns N Roses Tabs
Guns N Roses Chords
Guns N Roses Bass
Guns N Roses Lyrics




W W W
F#||-------------------|-------------------|-------------------|
C#||-------------------|-------------------|-------------------|
G#||-------------------|-------------------|-------------------|
D#||-------------------|-------------------|-------------------|


W W W W
-------------------|-------------------|-------------------|-------------------|
-------------------|-------------------|-------------------|-------------------|
-------------------|-------------------|-------------------|-------------------|
-------------------|-------------------|-------------------|-------------------|


H Q E E Q. Q E E E
-----------------------|----------11--------11--12--|
-----------------------|--12------------12----------|
-------------------12--|----------------------------|
-----------------------|----------------------------|


Q E E E E E E Q. H E
--14----16--14--12--11---------|----------12------------|
------------------------12--0--|--10----------------10--|
-------------------------------|------------------------|
-------------------------------|------------------------|


E E E Q E E E H. E E H. E E
--10--9------10----9---------|-----------------------|--12-------------------|
---------10-----------10--0--|-------------------12--|-------------------12--|
-----------------------------|--10-------------------|-----------------------|
-----------------------------|-----------------------|-----------------------|


E E E Q E Q H. Q Q E E Q E E
--12--11------12----11--------|----------------------|------------------------|
----------12------------12----|--L-------------------|------------------------|
------------------------------|----------------------|--5-------5--5-------5--|
------------------------------|---------------10S----|------------------------|


Q E E E E E E Q E E Q E E Q E E E E E E
-------------------------|------------------------|-------------------------|
----------------7--------|------------------------|-------------3--2--------|
--5-------5--9-----9--0--|--3-------3--3-------3--|--3-------3--------5--3--|
-------------------------|------------------------|-------------------------|


Q E E Q E E E E E E E E E E Q E E Q E E
------------------------|--------------------------|------------------------|
------------------------|--------3--4--5-----------|------------------------|
------------------------|-----------------0--3--4--|--5----0--5--5-------5--|
--3-------3--3-------3--|--3--0--------------------|------------------------|


E E E E Q Q Q E E Q E E Q E E Q E E
------------------------|------------------------|------------------------|
-----7--------5----4----|------------------------|------------------------|
--9-----0--5------------|--5-------5--5-------5--|--5-------5--5----0--2--|
------------------------|------------------------|------------------------|


Q E E Q E E E E E E Q E E Q E E Q E E
------------------------|-------------------------|------------------------|
------------------------|-------------------------|------------------------|
--3-------3--3----0--3--|--3--3--0--3--3----2--0--|------------------------|
------------------------|-------------------------|--3-------3--3----0--3--|


Q E E E E E E Q E E Q E E E E E E Q Q
-------------------------|------------------------|-----7------------------|
----------------5--------|------------------------|--------------5----4----|
-------------------0--0--|--5----0--5--5-------5--|--5-----0--5------------|
--3-------3--3-----------|------------------------|------------------------|


Q E E Q E E Q E E Q E E Q E E Q E E
------------------------|------------------------|------------------------|
------------------------|------------------------|------------------------|
--5-------5--5-------5--|--5-------5--5----0--2--|--3-------3--3----0--3--|
------------------------|------------------------|------------------------|


E E E E E E E E Q E E Q E E Q E E E E E E
--------------------------|------------------------|-------------------------|
--------------------------|------------------------|-------------------------|
--3-----------------------|------------------------|-------------------3--4--|
-----0--0--0--1--1--2--2--|--3----0--3--3----0--3--|--3----0--3--3--0--------|


Q E E Q E S S E S S E S S E E Q
---------------------------|------------------------------------|
---------------------10-11-|--12--12-12-12--12-12-12------------|
--5-------5--5----0--------|------------------------------------|
---------------------------|--------------------------0--13S----|


Q E E E E E E Q E E Q E E Q E E Q E E
-------------------------|------------------------|------------------------|
-------------------------|------------------------|------------------------|
----------------------2--|--3-------3--L----3--0--|--5-------5--5-------5--|
--5-------5--L--5--5-----|------------------------|------------------------|


Q E E E E E E Q E E Q E E Q E E Q E S S
-------------------------|------------------------|-------------------------|
-------------7--5--4--0--|------------------------|-------------------------|
--5-------5--------------|---------------------2--|--3-------3--L----3--3-4-|
-------------------------|--5-------5--L----5-----|-------------------------|


Q E E Q E S S E E E E E E Q
---------------------------|--------------------------------|
---------------------10-11-|--12--12--12--12--12------------|
--5-------5--5-------------|--------------------------------|
---------------------------|----------------------0--12S----|


Q E E Q E E Q E E E E E E Q E E Q E E
------------------------|----------------7--------|------------------------|
------------------------|-------------------------|------------------------|
--5-------5--5-------5--|--5-------5--5-----5--0--|--3-------3--3-------3--|
------------------------|-------------------------|------------------------|


E E E E E E E E Q E E Q E E E E E E E E E E
-----5-----------5--------|------------------------|--------------------------|
--------------------------|------------------------|-----------------------7--|
--3--------0--3--------0--|------------------------|--------2--0--3--0--4-----|
--------------------------|--3----0--3--3----0--3--|--3--0--------------------|


Q E E Q E E E E E E Q Q Q E E Q E E
------------------------|-----7------------------|------------------------|
------------------------|--------------5----4----|------------------------|
--5----0--5--5-------5--|--5--------5------------|--5-------5--5-------5--|
------------------------|------------------------|------------------------|


Q E E Q E E Q E E Q E E E E E E Q E E
------------------------|------------------------|-------------------------|
------------------------|------------------------|-------------------------|
--5-------5--5----0--2--|--3-------3--3----0--3--|--3--3--0--3--3----2--0--|
------------------------|------------------------|-------------------------|


Q E E Q E E Q E E E E E E Q E E Q E E
------------------------|-------------------------|------------------------|
------------------------|----------------5--------|------------------------|
------------------------|-------------------0--0--|--5----0--5--5-------5--|
--3-------3--3----0--3--|--3-------3--3-----------|------------------------|


E E E E Q Q Q E E Q E E Q E E Q E E
-----7------------------|------------------------|------------------------|
--------------5----4----|------------------------|------------------------|
--5-----0--5------------|--5-------5--5-------5--|--5-------5--5----0--2--|
------------------------|------------------------|------------------------|


Q E E Q E E E E E E E E E E Q E E Q E E
------------------------|--------------------------|------------------------|
------------------------|--------------------------|------------------------|
--3-------3--3----0--3--|--3-----------------------|------------------------|
------------------------|-----0--0--0--1--1--2--2--|--3----0--3--3----0--3--|


Q E E E E E E Q E E Q E S S
-------------------------|---------------------------|
-------------------------|---------------------10-11-|
-------------------3--4--|--5-------5--5----0--------|
--3----0--3--3--0--------|---------------------------|


E S S E S S E E Q Q E E E E E E
------------------------------------|-------------------------|
--12--12-12-12--12-12-12------------|-------------------------|
------------------------------------|----------------------2--|
--------------------------0--13S----|--5-------5--L--5--5-----|


Q E E Q E E Q E E Q E E Q E E E E E E
------------------------|------------------------|-------------------------|
------------------------|------------------------|-------------7--5--4--0--|
--3-------3--L----3--0--|--5-------5--5-------5--|--5-------5--------------|
------------------------|------------------------|-------------------------|


Q E E Q E E Q E E Q E S S Q E E Q E S S
------------------------|-------------------------|---------------------------|
------------------------|-------------------------|---------------------10-11-|
---------------------2--|--3-------3--L----3--3-4-|--5-------5--5-------------|
--5-------5--L----5-----|-------------------------|---------------------------|


E E E E E E Q Q E E Q E E
--------------------------------|------------------------|
--12--12--12--12--12------------|------------------------|
--------------------------------|--5-------5--5-------5--|
----------------------0--12S----|------------------------|


Q E E E E E E Q E E Q E E E E E E Q E E
----------------7--------|------------------------|-------------------------|
-------------------------|------------------------|-------------------------|
--5-------5--5-----5--0--|--3-------3--3----0--3--|--3--3--0--3--3----2--0--|
-------------------------|------------------------|-------------------------|


Q E E Q E E E E E E E E E E Q E E Q E E
------------------------|--------------------------|------------------------|
------------------------|--------3--4--5-----------|------------------------|
------------------------|-----------------0--3--4--|--5----0--5--5-------5--|
--3----0--3--3----0--3--|--3--0--------------------|------------------------|


E E E E Q Q Q E E Q E E Q E E Q E E
------------------------|------------------------|------------------------|
-----7--------5----4----|------------------------|------------------------|
--9-----0--5------------|--5----0--5--5-------5--|--5-------5--5----0--2--|
------------------------|------------------------|------------------------|


Q E E Q E E Q E E E E E E Q E E Q E E
------------------------|-------------------------|------------------------|
------------------------|-------------------------|------------------------|
--3----0--3--3----0--3--|--3----0--3--3--2--0--0--|------------------------|
------------------------|-------------------------|--3----0--3--3----0--3--|


E E E E E E E E Q E E Q E E
--------------------------|------------------------|
--------3--4--5-----------|------------------------|
-----------------0--3--4--|--5----0--5--5----5--5--|
--3--0--------------------|------------------------|


E S S E S S E E E E Q E E E E E E Q E E Q E E
-----7-7-7--7-7-7--7--7-----|-------------------------|------------------------|
----------------------------|-------------------------|------------------------|
----------------------------|----------------------2--|--3-------3--L----3--0--|
--5----------------------0--|--5-------5--L--5--5-----|------------------------|


Q E E Q E E Q E E E E E E Q E E Q E E
------------------------|-------------------------|------------------------|
------------------------|-------------7--5--4--0--|------------------------|
--5-------5--5-------5--|--5-------5--------------|---------------------2--|
------------------------|-------------------------|--5-------5--L----5-----|


Q E E Q E S S Q E E Q E E E E E E E E E E
-------------------------|------------------------|--------------------------|
-------------------------|------------------------|--------------------------|
--3-------3--L----3--3-4-|--5-------5--5-------5--|--5-----------------------|
-------------------------|------------------------|-----0--2--0--3--0--4--0--|


Q E Q. E E Q E Q. E S S Q E E Q E E
-----------------------|------------------------|------------------------|
-----------------------|------------------------|------------------------|
--------------------2--|--3-------3------3--0-0-|--5-------5--5-------5--|
--5-------5------5-----|------------------------|------------------------|


E E E E E E E E Q E Q. E E Q E E E E E E
-----7--------7-----7-----|-----------------------|-------------------------|
--------------------------|-----------------------|-------------------------|
--5-----5--5-----5-----0--|--------------------2--|--3-------3--L--3--3-----|
--------------------------|--5-------5------5-----|----------------------5--|


E E E E E E E E E E E E E E Q Q E E Q E E
--------------------------|-------------------------|------------------------|
--------------------------|-------------------------|------------------------|
--5--5--5--5--5--5--5--5--|--5--5--5--5--5--0--6----|-------7--7--L----------|
--------------------------|-------------------------|--0---------------0--0--|


Q E E Q. E Q E E Q. E Q E E E E E E
----------5--L---------|----------4--L---------|-------------------------|
-----------------------|-----------------------|----------7--L-----------|
--3----3---------------|--2----2---------------|-------------------------|
--------------------5--|--------------------0--|--5----5--------0--3--2--|


Q E E Q E E Q E E Q. E Q E E Q. E
------------------------|----------5--L---------|----------4--L---------|
------------------------|-----------------------|-----------------------|
-------7--7--L----------|--3----3---------------|--2----2---------------|
--0---------------0--0--|--------------------5--|--------------------0--|


Q E E E E E E Q E E Q E E Q E E Q. E
-------------------------|------------------------|----------5--L---------|
----------7--L-----------|------------------------|-----------------------|
-------------------------|-------7--7--L----------|--3----3---------------|
--5----5--------0--3--2--|--0---------------0--0--|--------------------5--|


Q E E Q. E Q E E E E E E Q E E Q E E
----------4--L---------|-------------------------|------------------------|
-----------------------|----------7--L-----------|------------------------|
--2----2---------------|-------------------------|-------7--7--L----------|
--------------------0--|--5----5--------0--3--2--|--0---------------0--0--|


Q E E Q. E Q E E Q. E Q E E E E E S S
----------5--L---------|----------4--L---------|--------------------------|
-----------------------|-----------------------|----------------------5-6-|
--3----3---------------|--2----2---------------|--------------------------|
--------------------5--|--------------------0--|--5----5--5--5--5--5------|


E E E E E E E E Q E E E E E E Q E E E E E E
--------------------------|-------------------------|-------------------------|
--7--7--7--7--7--5--------|-------------------------|----------5--L-----------|
--------------------7--5--|----------7--L-----------|-------------------------|
--------------------------|--0----0--------0--0--2--|--3----3--------3--3--0--|


Q E E E E E E E E E E Q Q Q E E E E E E
-------------------------|------------------------|-------------------------|
-------------------------|------------------------|-------------------------|
-------------------------|--3--3--3--3--5---------|----------7--L-----------|
--5----0--5--L--5--5--0--|-------------------3----|--0----0--------0--0--2--|


Q E E E E E E Q E E E E E E E E E E Q Q
-------------------------|-------------------------|------------------------|
----------5--L-----------|-------------------------|------------------------|
-------------------------|-------------------------|--3--3--3--3--5---------|
--3----3--------3--3--0--|--5----0--5--L--5--5--0--|-------------------3----|


Q E E E E E E Q E E E E E E Q E E E E E E
-------------------------|-------------------------|-------------------------|
-------------------------|----------5--L-----------|-------------------------|
----------7--L-----------|-------------------------|-------------------------|
--0----0--------0--0--2--|--3----3--------3--3--0--|--5----0--5--L--5--5--0--|


E E E E Q Q Q E E E E E E Q E E E E E E
------------------------|-------------------------|-------------------------|
------------------------|-------------------------|----------5--L-----------|
--3--3--3--3--5---------|----------7--L-----------|-------------------------|
-------------------3----|--0----0--------0--0--2--|--3----3--------3--3--0--|


Q E E E E E E E E E E Q Q Q E E Q E E
-------------------------|------------------------|------------------------|
-------------------------|------------------------|------------------------|
-------------------------|--3--3--3--3--5---------|------------------------|
--5----0--5--L--5--5--0--|-------------------3----|--0-------0----------2--|


Q E E H Q E E H E E E E Q Q
----------------------|----------------------|------------------------|
----------------------|----------------------|------------------------|
----------------------|----------------------|-----3--3--3--5---------|
--3-------3-----------|--5-------5-----------|-------------------3----|


Q E E Q E E Q E E H Q E E H
------------------------|----------------------|----------------------|
------------------------|----------------------|----------------------|
------------------------|----------------------|----------------------|
--0-------0----------2--|--3-------3-----------|--5-------5-----------|


E E E E Q Q Q E E Q E E Q E E H
------------------------|------------------------|----------------------|
------------------------|------------------------|----------------------|
-----3--3--3--5---------|------------------------|----------------------|
-------------------3----|--0-------0----------2--|--3-------3-----------|


Q E E H E E E E Q E E Q E E E E E E
----------------------|-------------------------|-------------------------|
----------------------|-------------------------|-------------------------|
----------------------|--3--3--3--3--5----------|-------------------------|
--5-------5-----------|-------------------3--3--|--0----0--0--0--0--0--2--|


Q E E E E E E E E E E E E E E
-------------------------|--------------------------|
-------------------------|--------------------------|
-------------------------|--------------------------|
--3----3--3--3--3--3--0--|--5--5--5--5--5--5--0--0--|


Q Q E E E E Q E E E E E E Q E E Q E E
---------------------------|-------------------------|------------------------|
--14----14----14--0--------|-------------------------|----------5--L----------|
---------------------------|----------7--L-----------|------------------------|
---------------------5--3--|--0-------------0--0--2--|--3----3----------3--0--|


Q E E E E E E E E E S S Q Q Q E E E E E E
-------------------------|--------------------------|-------------------------|
-------------------------|--------------------------|-------------------------|
-------------------------|--3--3--3--3S-5-5---------|----------7--L-----------|
--5----0--5--L--5--5--0--|---------------------3----|--0-------------0--0--2--|


Q E E Q E E Q E E E E E E E E E S S Q Q
------------------------|-------------------------|--------------------------|
----------5--L----------|-------------------------|--------------------------|
------------------------|-------------------------|--3--3--3--3S-5-5---------|
--3----3----------3--0--|--5----0--5--L--5--5--0--|---------------------3----|


Q E E E E E E Q E E Q E E Q E E E E E E
-------------------------|------------------------|-------------------------|
-------------------------|----------5--L----------|-------------------------|
----------7--L-----------|------------------------|-------------------------|
--0-------------0--0--2--|--3----3----------3--0--|--5----0--5--L--5--5--0--|


E E E S S Q Q Q S S E E E E E Q E E E E E E
--------------------------|--------------------------|----------------4--------|
--------------------------|--------------------------|----------5--L-----------|
--3--3--3--3S-5-5---------|-----------7--L-----------|-------------------------|
---------------------3----|--0----0-0-------0--0--2--|--3----3-----------3--0--|


W H H W
-------------------|--------------------|-------------------|
-------------------|--------------------|-------------------|
-------------------|--3--------5--------|-------------------|
--5----------------|--------------------|--0----------------|


W W W W
-------------------|-------------------|-------------------|-------------------|
-------------------|-------------------|-------------------|-------------------|
-------------------|-------------------|-------------------|-------------------|
--L----------------|--L----------------|--L----------------|--L----------------|


W W W
-------------------|-------------------|-------------------||
-------------------|-------------------|-------------------||
-------------------|-------------------|-------------------||
--L----------------|--L----------------|--L----------------||



Get this song at amazon.com      Ebay     Ringtones Ringtones  


Learn to play: Songwriting, Piano, Harmonica, Guitar
More Guns 'N' Roses lyrics available at Muzikum

Related Guns N Roses Bass Tabs

Since I bass
Sweet Child O Mine Bass Tab bass
I Used To Love Her bass
Shotgun Blues bass
Garden Of Eden (the Normal Version) bass
Sweet Child O Mine Intro bass
Think About It bass
Breakdown bass
November Rain bass
Bass Solo bass
Sweet Child Of Mine bass
Coma (full Transcription) bass
Hair Of The Dog bass
Live And Let Die bass
Reckless Life bass
Sweet Child O Mine Standard Tuning bass
Knockin On Heavens Door (standard Tunin) bass
Welcome To The Jungle bass
Knocking On Heavens Door bass
Outta Get Me bass


Guitar Tabs









All tabs are property and copyright of their owners. All tabs provided for educational purposes only. Privacy Policy, DMCA

Online converter - videoconverter.com