Guns N Roses

Sweet Child 'o' Mine 100 %perfect Tabs



More from Guns N Roses

Guns N Roses Tabs
Guns N Roses Chords
Guns N Roses Bass
Guns N Roses Lyrics



Intro
Medium Rock Q=122
4/4
Gtr I
E E E E E E E E E E E E E E E E
|-------------15----14----|-------------15----14----|
|----15-------------------|----15-------------------|
|-------14-12----14----14-|-------14-12----14----14-|
|-12----------------------|-12----------------------|
|-------------------------|-------------------------|
|-------------------------|-------------------------|


E E E E E E E E E E E E E E E E
|-------------15----14----|-------------15----14----|
|----15-------------------|----15-------------------|
|-------14-12----14----14-|-------14-12----14----14-|
|-14----------------------|-14----------------------|
|-------------------------|-------------------------|
|-------------------------|-------------------------|


W W
E E E E E E E E E E E E E E E E
|-------------15----14----|-------------15----14----|
|----15-------------------|----15-------------------|
|-12----14-12----14----14-|-12----14-12----14----14-|
|-------------------------|-------------------------|
|-------------------------|-------------------------|
|-------------------------|-------------------------|


D5II
Gtr II
H E E E E E E E E E E E E
| | | | | | | | | | | |
/ / / / / / / / / / / /

E E E E E E E E E E E E E E E E
|-------------15----14----|-------------15----14-----|
|----15-------------------|----15--------------------|
|-------14-12----14----14-|-------14-12----14----14--|
|-12----------------------|-12-----------------------|
|-------------------------|--------------------------|
|-------------------------|--------------------------|


D
Gtr III
W +W
| |
/ /

Gtr II
Q. E +Q. E E E E E +E E E E
|--2---------2-(2)--------2-|--3p=2--2--3-(3)--2-------|
|--3---------3-(3)--------3-|--3--------3-(3)-----3----|
|--2---------2-(2)--------2-|--2--------2-(2)-----2--2-|
|--0---------0-(0)--------0-|--0---------------------0-|
|---------------------------|--------------------------|
|---------------------------|--------------------------|
|
| Gtr I
| E E E E E E E E E E E E E E E E
|--------------15-----14----|-------------15-----14----|
|-----15--------------------|----15--------------------|
|--------14-12-----14----14-|-------14-12-----14----14-|
|-12------------------------|-12-----------------------|
|---------------------------|--------------------------|
|---------------------------|--------------------------|


Cadd9
W +W
| |
/ /

E Q E +H E E E E +Q. E
|---------------------------|---------------------------|
|-^1--3------1-(1)----------|--3--1-----1-(1)-----------|
|-^0-(0)-----0-(0)----------|--0-----0---------------0--|
|-^2-(2)-----2-(2)----------|--2------------------------|
|-^3-(3)-----3-(3)----------|--3------------------------|
|---------------------------|---------------------------|
|
| E E E E E E E E E E E E E E E E
|--------------15-----14----|-------------15-----14-----|
|----15---------------------|----15---------------------|
|--------14-12-----14----14-|-------14-12-----14----14--|
|-14------------------------|-14------------------------|
|---------------------------|---------------------------|
|---------------------------|---------------------------|


G
W +W
| |
/ /

>
Q E E +H +W
|--------------------------|--------------------------|
|--3--------0-(0)----------|-(0)----------------------|
|--0-----0--0-(0)----------|-(0)----------------------|
|--0--------0-(0)----------|-(0)----------------------|
|--2--------2-(2)----------|-(2)----------------------|
|--3--------3-(3)----------|-(3)----------------------|
|
| E E E E E E E E E E E E E E E E
|-------------15-----14----|--------------15----14----|
|----15--------------------|-----15-------------------|
|-12----14-12-----14----14-|-12-----14-12----14----14-|
|--------------------------|--------------------------|
|--------------------------|--------------------------|
|--------------------------|--------------------------|


D
W +W
| |
/ /


| Q E E +H +W
|---------------------------|--------------------------|
|--3---------0-(0)----------|-(0)----------------------|
|--0------0--0-(0)----------|-(0)----------------------|
|--0---------0-(0)----------|-(0)----------------------|
|--2---------2-(2)----------|-(2)----------------------|
|--3---------3-(3)----------|-(3)----------------------|
|
| E E E E E E E E E E E E E E E E
|--------------15-----14----|--------------15----14----|
|-----15--------------------|-----15-------------------|
|-12-----14-12-----14----14-|-12-----14-12----14----14-|
|---------------------------|--------------------------|
|---------------------------|--------------------------|
|---------------------------|--------------------------|


Q. E Q. E Q. E Q Q
|--2---------2--2---------2-|--2---------2--3------2-----||
|--3---------3--3---------3-|--3---------3--3------3-----||
|--2---------2--2---------2-|--2---------2--2------2-----||
|--0---------0--0---------0-|--0---------0--0------0-----||
|---------------------------|----------------------------||
|---------------------------|----------------------------||
|
|
Q E E +H +W
|--------------------------|---------------------------------------|
|-3----0-(0)---------------|-(0)-----------------------------------|
|-0--0-0-(0)---------------|-(0)-----------------------------------|
|-0----0-(0)---------------|-(0)-----------------------------------|
|-2----2-(2)---------------|-(2)-----------------------------------|
|-3----3-(3)---------------|-(3)-----------------------------------|
|
| H +E E +E E E +E E E +Q +E E
|--------------------------|------------10-10pb12==(10)r=(10)------|
|-8------(8)-10pb12r(10)-8-|-10b12-(10)----------------------------|
|--------------------------|----------------------------------9b11-|
|--------------------------|---------------------------------------|
|--------------------------|---------------------------------------|
|--------------------------|---------------------------------------|




Q E E +H +W
|--------------------|------------------------|
|-^3------0-(0)------|-(0)--------------------|
|-^0----0-0-(0)------|-(0)--------------------|
|-^0------0-(0)------|-(0)--------------------|
|-^2------2-(2)------|-(2)--------------------|
|-^3------3-(3)------|-(3)--------------------|
|
| H.. E H E +E E E
|--------------------|------------------------|
|--8--------------10s|==8-----7pb8r(7)---7b8==|
|--------------------|-----------------7------|
|--------------------|------------------------|
|--------------------|------------------------|
|--------------------|------------------------|



Q E E +H +W
|-----------------------------|-----------------------------------|
|--3-----0-(0)----------------|-(0)-------------------------------|
|--0---0-0-(0)----------------|-(0)-------------------------------|
|--0-----0-(0)----------------|-(0)-------------------------------|
|--2-----2-(2)----------------|-(2)-------------------------------|
|--3-----3-(3)----------------|-(3)-------------------------------|
|
| ~~~~~~
| +Q E E +Q S +S E Q E E +Q +E E
|-(7)-------------------------|--------10-10b12==(10)r=(10)-------|
|------8--------10pb12r(10)p8-|-10b12-----------------------17b19-|
|--------7-(7)----------------|-----------------------------------|
|-----------------------------|-----------------------------------|
|-----------------------------|-----------------------------------|
|-----------------------------|-----------------------------------|


D.S. al Coda
$
Get this song at amazon.com      Ebay     Ringtones Ringtones  


Learn to play: Songwriting, Piano, Harmonica, Guitar
More Guns 'N' Roses lyrics available at Muzikum

Related Guns N Roses Tabs

Knocking On Heavens Door Solo tabs
Locomotive tabs
Mama Kin tabs
So Fine tabs
November Rain tabs
Paradise City Guitar tabs
Move To The City tabs
Get In The Ring tabs
Gnr Lies tabs
Patience Solo tabs
Out Ta Get Me tabs
Welcome To The Jungle (baby) tabs
Chi tabs
The Garden tabs
Talkin Double Jive tabs
Better tabs
Garden Of Eden tabs
DustN Bones tabs
Use Your Illusion 2 Album tabs
Aint It Fun2 tabs


Guitar Tabs









All tabs are property and copyright of their owners. All tabs provided for educational purposes only. Privacy Policy, DMCA