Guns N Roses

Sweet Child Of Mine Intro 100% Correct Tabs



More from Guns N Roses

Guns N Roses Tabs
Guns N Roses Chords
Guns N Roses Bass
Guns N Roses Lyrics




most of you have the intro tabbed wrong
easy mistake tho cuz they did somethin to the recording to make
it sound that
way cuz its really this

e--------------14----13---
b-----14------------------
g--------13-11----13----13
d--11---------------------
a-------------------------
e-------------------------


e--------------14----13---
b-----14------------------
g--------13-11----13----13
d--11---------------------
a-------------------------
e-------------------------


e--------------14----13---
b-----14------------------
g--------13-11----13----13
d--11---------------------
a-------------------------
e-------------------------


e--------------14----13---
b-----14------------------
g--------13-11----13----13
d--13---------------------
a-------------------------
e-------------------------


e--------------14----13---
b-----14------------------
g--------13-11----13----13
d--13---------------------
a-------------------------
e-------------------------



Get this song at amazon.com      Ebay     Ringtones Ringtones  


Learn to play: Songwriting, Piano, Harmonica, Guitar
More Guns 'N' Roses lyrics available at Muzikum

Related Guns N Roses Tabs

Bad Obsession tabs
You're Crazy tabs
Patience (lead) tabs
Jumping Jack Flash tabs
Godfather Theme tabs
Only Woman Bleed tabs
Use Your Illusion 2 Album tabs
Rocket Queen Solo tabs
Paridice City tabs
Sweet Child 'o' Mine 100 %perfect tabs
Your Crazy tabs
Patience Intro tabs
Look At Your Game Girl tabs
Patience 2001 Intro tabs
Ain`t It Fun tabs
Live And Let Die tabs
The Godfather Theme tabs
Chinese Democracy Intro tabs
Madagascar tabs
Whole Lotta Rosie tabs


Guitar Tabs









All tabs are property and copyright of their owners. All tabs provided for educational purposes only. Privacy Policy, DMCA