Guns N Roses

Sweet Child O Mine Standard Tuning Bass Tabs



More from Guns N Roses

Guns N Roses Tabs
Guns N Roses Chords
Guns N Roses Bass
Guns N Roses Lyrics




this is normally played 1/2 step down but here it is in standard


/=slide
w=walk up



all guitar untill :12 then come in hitting 11s on the D string then

G|--10-10-11-13-15-13-11-10----11-98-98--11-11-10--11-10--|
D|11-----------------------11-9-----9--8---------11-----11|
A|--------------------------------------9-----------------|
E|--------------------------------------------------------|


verse

G|------1-------------------------------|
D|-----3-3-1---2-1------234--------6-43-|
A|4-4-4-----2-2---2/4-------234-4---4--4|
E|-------------------2-2---2------------|

G|------1-------------------------------|
D|-----3-3-1---2-1------234--------6-43-|
A|4-4-4-----2-2---2/4-------234-4---4--4|
E|-------------------2-2---2------------|

G|------1---------------------------|
D|-----3-3-1---2-1------234---------|
A|4-4-4-----2-2---2/4-------234-4/16|
E|-------------------2-2---2--------|


chorus

G|-----------------------|
D|-----------------6-43--|
A|------1w2-2-22-4-----4-|
E|4-4-44-----------------|

G|-------------------|
D|-------------------|
A|------1w2-2-22-4/16|
E|4-4-44-------------|


verse

G|------1-------------------------------|
D|-----3-3-1---2-1------234--------6-43-|
A|4-4-4-----2-2---2/4-------234-4---4--4|
E|-------------------2-2---2------------|

G|------1-------------------------------|
D|-----3-3-1---2-1------234--------6-43-|
A|4-4-4-----2-2---2/4-------234-4---4--4|
E|-------------------2-2---2------------|

G|------1---------------------------|
D|-----3-3-1---2-1------234---------|
A|4-4-4-----2-2---2/4-------234-4/16|
E|-------------------2-2---2--------|

chorus

G|-----------------------|
D|-----------------6-43--|
A|------1w2-2-22-4-----4-|
E|4-4-44-----------------|

G|-------------------|
D|-------------------|
A|------1w2-2-22-4/16|
E|4-4-44-------------|

verse

G|------1-------------------------------|
D|-----3-3-1---2-1------234--------6-43-|
A|4-4-4-----2-2---2/4-------234-4---4--4|
E|-------------------2-2---2------------|

G|------1-------------------------------|
D|-----3-3-1---2-1------234--------6-43-|
A|4-4-4-----2-2---2/4-------234-4---4--4|
E|-------------------2-2---2------------|

chorus

G|-----------------------|
D|-----------------6-43--|
A|------1w2-2-22-4-----4-|
E|4-4-44-----------------|

G|-------------------|
D|-------------------|
A|------1w2-2-22-4/16|
E|4-4-44-------------|

G|-----------------------|
D|-----------------6-43--|
A|------1w2-2-22-4-----4-|
E|4-4-44-----------------|

G|------------------------|
D|------------------------|
A|------1w2-2-22-4-4444444|
E|4-4-44------------------|

Solo

G|---------------------|
D|1-11-----------------|
A|----4-2-22-4-11-1----|
E|-----------------4-21|

G|---------------------|
D|1-11-----------------|
A|----4-2-22-4-11-1----|
E|-----------------4-21|

G|---------------------|
D|1-11-----------------|
A|----4-2-22-4-11-1----|
E|-----------------4-21|

G|---------------------|
D|1-11-----------------|
A|----4-2-22-4-11-1----|
E|-----------------4-21|

the it changes into

G|-----------------|
D|1-11-------------|
A|--------22-222-4-|
E|----0-22--------2|

and play that for the rest of then song



Get this song at amazon.com      Ebay     Ringtones Ringtones  


Learn to play: Songwriting, Piano, Harmonica, Guitar
More Guns 'N' Roses lyrics available at Muzikum

Related Guns N Roses Bass Tabs

Knocking On Heavens Door bass
Yesterdays bass
Brakdown bass
November Rain bass
Outta Get Me bass
Shotgun Blues bass
Don't Cry bass
Garden Of Eden (the Insane Version) bass
Garden Of Eden bass
Youre Crazy bass
Don' Cry bass
Locomotive bass
So Fine bass
Bass Solo bass
Dont Cry bass
Sweet Child O Mine Standard Tuning bass
Don't Cry (standard Tuning) bass
Mr Brownstone bass
Somewhere Over The Rainbow bass
Down On The Farm bass


Guitar Tabs









All tabs are property and copyright of their owners. All tabs provided for educational purposes only. Privacy Policy, DMCA