Guns N Roses

Sweet Child O Mine Bass Tab Bass Tabs



More from Guns N Roses

Guns N Roses Tabs
Guns N Roses Chords
Guns N Roses Bass
Guns N Roses Lyrics




Intro
Medium Rock Q=122
4/4
Gtr I
Wx7 H Q E E Q. E +Q E E Q E E E E E E
|------------|--------------|-------11-(11)--11-12-|-14--16-14-12-11----14-|
|------------|--------------|-12-------------------|-----------------12----|
|------------|-----------12-|----------------------|-----------------------|
|------------|--------------|----------------------|-----------------------|


Q. E +Q. E E E E E +E E E E
|-------12-(12)------|-10-9----10-(10)-9-------|
|-10--------------10-|------10-----------10----|
|--------------------|-------------------------|
|--------------------|----------------------10-|


H.. a E H.. a E
|------------------|-12----------------|
|------------10S12-|------------10S12--|
|-10---------------|-------------------|
|------------------|-------------------|


E E E E +E E Q H Q Q Q. E Q. E Q. E E E E E
|-12-11----12-(12)-11-----|---------------|---------------|-----------------|
|-------12------------12--|-12-------12--|---------------|--------4-7-4----|
|-------------------------|---------------|-5----5-5----5-|-5----5----------|
|-------------------------|---------------|---------------|--------------5--|


Q. E Q. E Q. E E E E E Q. E Q. E
|---------------|----------------|---------------|
|---------------|--------3-2-----|---------------|
|-3----3-3----3-|-3----3-----3---|---------------|
|---------------|--------------5-|-3----3-3----3-|


E E E E E E E E Q. E Q. E E E E E Q Q
|-----------------|---------------|---------------||
|-----3-4-5-------|---------------|-4-7-----5--4--||
|-----------2-3-4-|-5----5-5----5-|-------5-------||
|-3-0-------------|---------------|-----5---------||


1st Verse
Q. E Q. E Q. E Q E E Q E E Q. E
|---------------|---------------|---------------|
|---------------|---------------|---------------|
|-5----5-5----5-|-5----5-5--0-2-|-3----3-3----3-|
|---------------|---------------|---------------|


Q E E E E E E Q. E Q. E Q. E E E E E
|----------------||---------------|----------------|
|----------------||---------------|----------5-----|
|-3--3-3-3-3-2-0-||---------------|--------------0-|
|----------------||-3----3-3----3-|-3----3-3-------|


Q. E Q. E E E E E Q Q Q. E Q. E Q. E Q E E
|---------------|---7-----------|---------------|----------------|
|---------------|---------5--4--|---------------|----------------|
|-5----5-5----5-|-5---0-5-------|-5----5-5----5-|-5----5-5--0-2--|
|---------------|---------------|---------------|----------------|


Q. E Q. E E E E E E E E E Q. E Q. E
|---------------|-----------------|---------------|
|---------------|-----------------|---------------|
|-3----3-3----3-|-3---------------|---------------|
|---------------|---0-0-1-1-1-2-2-|-3----3-3----3-|


Q. E E E E E Q. E Q. S S E E E E E E E E
|----------------|-------------5-6-|-7-7-7-7-7-------||
|----------------|-----------------|-----------------||
|----------2-3-4-|-5----5-5--------|-----------------||
|-3----3-3-------|-----------------|-----------0-2-3-||


Q E E +Q E E Q E E +Q. E Q. E Q. E Q. E E E E E
|-----------------|----------------|---------------|-----------------||
|-----------------|----------------|---------------|--------7-5-4----||
|-0----0-(0)--0-2-|-3----3-(3)---0-|-5----5-5----5-|-5----5-------5--||
|-----------------|----------------|---------------|-----------------||


Q E E +Q E E Q E E +Q. E Q. E Q. E E E E E E E Q
|-----------------|----------------|---------------|-7-7-7-7-7--------||
|-----------------|----------------|---------------|------------------||
|-0----0-(0)--0-2-|-3----3-(3)---0-|-5----5-5----5-|------------------||
|-----------------|----------------|---------------|-----------0-3---||


Q. E Q. E Q. E E E E E Q. E Q. E Q. E E E E E
|---------------|----------7-----|---------------|----------5------|
|---------------|----------------|---------------|-----------------|
|-5----5-5----5-|-5----5-5-----0-|-3----3-3----3-|-3----3-3--------|
|---------------|----------------|---------------|--------------0--|


Q. E Q. E E E E E E E E E Q. E Q. E E E E E Q Q
|---------------|-----------------|---------------|---7------------||
|---------------|-----------------|---------------|---------5--4---||
|-3----3-3----3-|-----2---3---4---|-5----5-5----5-|-5-----5--------||
|---------------|-3-3---3---3---3-|---------------|----------------||


2ND Verse
Q. E Q. E Q. E Q E E Q E E Q. E
|---------------|---------------|---------------|
|---------------|---------------|---------------|
|-5----5-5----5-|-5----5-5--0-2-|-3----3-3----3-|
|---------------|---------------|---------------|


Q. E E E E E Q. E Q. E Q. E Q. E Q. E Q. E
|----------------|---------------|---------------|----------------|
|--------5-3-2---|---------------|---------------|----------------|
|-3----3-------3-|---------------|-------------3-|-5----5-5----5--|
|----------------|-3----3-3----3-|-3----3-3------|----------------|


E Q. E E E E Q. E Q. E Q. E Q E E
|---7------7---7-|---------------|---------------|
|----------------|---------------|---------------|
|-5------5---5---|-5----5-5----5-|-5----5-5--0-2-|
|----------------|---------------|---------------|


Q. E Q. E E E E E E E E E Q. E Q. E
|---------------|-----------------|---------------|
|---------------|-----------------|---------------|
|-3----3-3----3-|-3---------------|---------------|
|---------------|---0-0-1-1-1-2-2-|-3----3-3----3-|


E E E E E E E E Q. E Q. S S E E E E E E E E
|-----------------|-------------5-6-|-7-7-7-7-7-------||
|---2-3-4-5-------|-----------------|-----------------||
|-----------2-3-4-|-5----5-5--------|-----------------||
|-3---------------|-----------------|-----------0-2-3-||


$
Q E E +Q E E Q E E +Q. E Q. E Q. E Q. E E E E E
|-----------------|----------------|---------------|----------7---7--|
|-----------------|----------------|---------------|-----------------|
|-0----0-(0)--0-2-|-3----3-(3)---0-|-5----5-5----5-|-5----5-5---5----|
|-----------------|----------------|---------------|-----------------|


To Coda
&
Q E E +Q E E Q E E +Q. E Q. E Q. E E E E E E E E E
|-----------------|----------------|---------------|-7---7---7---7----||
|-----------------|----------------|---------------|------------------||
|-0----0-(0)--0-2-|-3----3-(3)---0-|-5----5-5----5-|---5---5---5---5--||
|-----------------|----------------|---------------|------------------||


Q. E Q. E Q. E Q E E Q. E Q. E E Q. E E E E
|---------------|---------------|---------------|-----------------|
|---------------|---------------|---------------|---2----3-3-4-4--|
|-5----5-5----5-|-5----5-5--0-2-|-3----3-3----3-|-3---------------|
|---------------|---------------|---------------|-----------------|


Q. E Q. E E E E E E E E E Q. E Q. E E E E E Q Q
|---------------|-----------------|---------------|----------------|
|---------------|---2-3-4-5-------|---------------|-4-7-----5--4---|
|---------------|-----------2-3-4-|-5----5-5----5-|-----5-5--------|
|-3----3-3----3-|-3---------------|---------------|----------------|


Q. E Q. E Q. E Q E E Q. E Q. E Q. E E E Q
|---------------|---------------|---------------|----------------|
|---------------|---------------|---------------|----------------|
|-5----5-5----5-|-5----5-5--0-2-|-3----3-3----3-|-3----3-3-2-0---|
|---------------|---------------|---------------|----------------|


Q. E Q. E E E E E E E E E
|---------------|-----------------|
|---------------|---2-3-4-5-------|
|---------------|-----------2-3-4-|
|-3----3-3----3-|-3---------------|


D.S. al Coda
$
Q. E Q. E E S S S S S S S S S S E E
|---------------|----------------------------||
|---------------|---7-7-7-7-7-7-7-7-7-7-7----||
|-5----5-5----5-|-------------------------5--||
|---------------|-5--------------------------||


&
Q. E Q. E E E E E E E E E Q E E +Q E E
|---------------|-----------------|-----------------|
|---------------|-----------------|-----------------|
|-5----5-5----5-|-5---------------|-----------------|
|---------------|---0-2-0-3-0-4-0-|-0----0-(0)--0-2-|


Q E E +Q E E Q. E Q. E E E E E E E E E
|-----------------|---------------|---7-----7---7---|
|-----------------|---------------|-----------------|
|-3----3-(3)--3-0-|-5----5-5----5-|-5---5-5---5---5-|
|-----------------|---------------|-----------------|


Q E E +Q E E Q E E +Q. E E E E E E E E E E E E E E E Q
|-----------------|----------------|-----------------|-----------------|
|-----------------|----------------|-----------------|-----------------|
|-----------------|-3----3-(3)-----|-5-5-5-5-5-5-5-5-|-5-5-5-5-5-0-6---|
|-0----0-(0)--0-2-|----------------|-----------------|-----------------|


Guitar Solo
Q E E +E E E E Q E E +Q Q Q. E +Q Q
||-------------------|------5-(5)-----|------4-(4)-----|
||o------2-(2)-------|----------------|----------------|
||o------------------|-3--3--------3--|-2-----------2--|
||--0--0-------0-2-3-|----------------|----------------|


1.,2.,3. 4.
Q E E +E E E E 4x E E E E E E E S S
|------2-(2)--------||-------------------|
|------------------o||---------------4-5-|
|-0----------------o||-0-0-0-0-0-0-0-----|
|------------0-3-2--||-------------------|


E E E E E E E E Q. E +Q E E
|-----------------||------------------|
|-7-7-7-7-7-5-4-4-||o------2-(2)------|
|-----------------||o-----------------|
|-----------------||--0-----------0-2-|


Q. E +Q Q Q. E +Q E E E E E E Q Q 4x
|----------------|------2-(2)------|------------------||
|------5-(5)-----|-----------------|-----------------o||
|----------------|-0-----------0-2-|-3-3-3-3-5-------o||
|-3-----------3--|-----------------|------------3-----||


Q E E +E E E E Q E E +E E Q Q E E +E E Q E E E E Q Q 3x
||-------------------|-----------------|-----------------|----------------||
||o------------------|-----------------|-----------------|---------------o||
||o------------------|-----------------|-0----0-(0)------|-3-3-3-3-5-----o||
||--0----0-(0)-----2-|-3----3-(3)------|-----------------|------------3---||


E E E E +E E E E E E E E E E E E E E E E E E E E E E E E E E E E
|-------------------|-----------------|-----------------|------------------|
|-------------------|-----------------|-----------------|------------------|
|-------------------|-----------------|-0-0-0-0-0-0-0-0-|-3-3-3-3-5-5------|
|-0-0-0-0-(0)-0-0-0-|-3-3-3-3-3-3-3-3-|-----------------|-------------3-3--|


Q. E +Q E E Q. E +Q Q Q. E +Q E E E E E E Q Q
||------------------|----------------|------2-(2)------|----------------||
||o------2-(2)------|------5-(5)-----|-----------------|---------------o||
||o-----------------|----------------|-0-----------0-2-|-3-3-3-3-5-----o||
||--0-----------0-2-|-3-----------3--|-----------------|------------3---||


|-3-| |-3-|
Q. E +Q E E Q. E +Q E E Q. E +Q Q Q Q Q Q Q Q
|-----------------|-----------------|----------------|-------------|
|------2-(2)------|------5-(5)------|------2-(2)-----|-------------|
|-----------------|-----------------|----------------|-7-5---------|
|-0-----------0-2-|-3-----------3-3-|-0--------------|-----7-6-5-3-|


Q. E +E E E E Q. E +Q Q W H H
|------------------|----------------|----------|-----------|
|------2-(2)-------|------5-(5)-----|----------|-----------|
|------------------|----------------|-0--------|-3----5----|
|-0----------0-0-2-|-3-----------3--|----------|-----------|


W +W +H H W
|----------|------------|-------------|------*|
|----------|------------|-------------|------*|
|----------|------------|-------------|------*|
|-0--------|-(0)--------|-(0)---------|------*|



Get this song at amazon.com      Ebay     Ringtones Ringtones  


Learn to play: Songwriting, Piano, Harmonica, Guitar
More Guns 'N' Roses lyrics available at Muzikum

Related Guns N Roses Bass Tabs

Youre Crazy bass
Welcome To The Jungle bass
Ain`t It Fun bass
Live And Let Die bass
Welcome To The Jungle Bass Tab bass
Pretty Tied Up bass
Knocking On Heavens Door (original Song) bass
Outta Get Me bass
Your Crazy bass
Raw Power bass
Think About You bass
Don't Cry (standard Tuning) bass
Down On The Farm bass
Back Off Bitch bass
Slash's Sweet Child Of Mine Intro On Bass bass
Welcome To The Jungle (100%) bass
Knockin on heavans door bass
Sweet Child Of Mine bass
Brakdown bass
Breakdown bass


Guitar Tabs









All tabs are property and copyright of their owners. All tabs provided for educational purposes only. Privacy Policy, DMCA