Guns N Roses

Spaghetti Incident Album Tabs



More from Guns N Roses

Guns N Roses Tabs
Guns N Roses Chords
Guns N Roses Bass
Guns N Roses Lyrics



Band- Guns N Roses
Album- The Spaghetti Incident?

1.Since I Don't Have You
2.New Rose
3.Down On The Farm
4.Human Being
5.Raw Power
6.Ain't It Fun
7.Buick MacKane
8.Hair Of The Dog
9.Attitude
10.Black Leather
11.You Can't Put Your Arms Around A Memory
12.I Don't Care About You

1.SINCE I DON'T HAVE YOU

INTRO:
E----------------------------------------------------------|
B----------------------------------------------------------|
G----(18)--------------------------------------------------|
D--------18h19p18p16h(18)-18h19p18p16----------------------|
A-16---------------------------------------------(17)------|
E----------------------------------------------------------|

E----------------------------------------------------------|
B-----18^18-16^16------------------------------------------|
G----------------------18----------------------------------|
D--------------------------18h19p18p16---------------------|
A-16------------------------------------------17-----------|
E----------------------------------------------------------|

E----------------------------------------------------------|
B----------------------------------------------------------|
G----------------------------------------------------------|
D-13--15--13--15--18--16--13--11-----11-13-11-------------|
A----------------------------------------13----------------|
E----------------------------------------------------------|


During the verse just play this chords: Gmaj, Cm, Dmaj.
In the chorus play this chords: Gmaj, Cm, Am, Dmaj.

E-3-----3-----5--------5-----------------------------------|
B-3-----4-----7--------5-----------------------------------|
G-4-----5-----7--------5-----------------------------------|
D-5-----5-----7--------7-----------------------------------|
A-5-----3-----5--------7-----------------------------------|
E-3-----3-----5--------5-----------------------------------|
Gmaj Cm Dmaj Am

2.NEW ROSE

Intro (Riff 1)
A B C D
e------------------------------------------|
b------------------------------------------|
g--X-X--7--4-4--9-9------------------------| Repeat
d--X-X--7--4-4--9-9-7-7--------------------| 5X
a--X-X--5--2-2--7-7-7-7--------------------|
e-------------------5-5--------------------|

Riff 2
e------------------------------------------------------|
b------------------------------------------------------|
g------------------------------------------------------| Repeat
d-10/1210-10-10--10-10-109/10-10-10-109/10-10-10----| 2x
a--8/108---8--8---8--8--87/8---8--8--87/8---8--8----|
e------------------------------------------------------|

A AB
Ive got a feeling inside of me
B B/A
Its gotta stay its gotta some way stay
A AB
I dont know why I dont know why
B B/A
Special things shes got for me

Riff 2
Ive got a new rose Ive got a gun
Riff 2
Yeah I knew that I always would
Riff 2
I cant stop to mess around
Riff 2
Ive got a brand new rose in town

A AB
See the sun see the sun n the sky
B B/A
Forget the rose and the_______ rides
A AB
Dont you run away that way
B B/A
Im comming back another day

Riff 2
Ive got a new rose Ive got a gun
Riff 2
Yeah I knew that I always would
Riff 2
I cant stop to mess around
Riff 2
Ive got a brand new rose in town

e------------------------------------------|
b------------------------------------------|
g--X-X--7--4-4--9-9------------------------| Repeat
d--X-X--7--4-4--9-9-7-7--------------------| 5X
a--X-X--5--2-2--7-7-7-7--------------------|
e-------------------5-5--------------------|

e------------------------------------------------------|
b------------------------------------------------------|
g------------------------------------------------------| Repeat
d-10/1210-10-10--10-10-109/10-10-10-109/10-10-10----| 2x
a--8/108---8--8---8--8--87/8---8--8--87/8---8--8----|
e------------------------------------------------------|

In this next part play chord B, right after the lyrics end play what is
tabbed below the lyric line.......

B
I never thought this would happen to me
e--------------------------------------------------|
b--------------------------------------------------|
g--------------------------------------19B////-|
d--------------------------------------------------|
a--------------------------------------------------|
e--------------------------------------------------|

B
On the same_______ machine
e------------------------------------------|
b------------------------------------------|
g-------------------------19B////21----|
d------------------------------------------|
a------------------------------------------|
e------------------------------------------|

B Repeat 2x----------]
I never serve sombody in the same
e-----------------------------------------------------|
b------------------------------17B(17)-15-17-15-17-15-|
g-----------------------------------------------------|
d-----------------------------------------------------|
a-----------------------------------------------------|
e-----------------------------------------------------|

B
I never never never be too late
e-----------------------------------------------------|
b------------------------------17B(17)-15-17-15-17-19-|B
g-----------------------------------------------------|
d-----------------------------------------------------|
a-----------------------------------------------------|
e-----------------------------------------------------|

e------------------------------------------|
b------------------------------------------|
g--X-X--7--4-4--9-9------------------------| Repeat
d--X-X--7--4-4--9-9-7-7--------------------| 5X
a--X-X--5--2-2--7-7-7-7--------------------|
e-------------------5-5--------------------|

A AB
Ive got a feeling inside of me
B B/A
Its gotta stay its gotta some way stay
A AB
I dont know why I dont know why
B B/A
Special things shes got for me

Riff 2
Ive got a new rose Ive got a gun
Riff 2
Yeah I knew that I always would
Riff 2
I cant stop to mess around
Riff 2
Ive got a brand new rose in town

e---------------------------------------------------|
b---------------------------------------------------|
g---------------------------------------------------| Repeat
d-10/1210-10-10--10-10-109/10-10-10-109/10-10-10-| Several
a--8/108---8--8---8--8--87/8---8--8--87/8---8--8-| X
e---------------------------------------------------|

e--------|
b--------|
g--------| The
d-9-7-7--| End
a-9-7-7--|
e-7-5-5--|

3.DOWN ON THE FARM

Intro :-
(1st Guitar repeats four times)
(2nd Guitar does short vertical pickslides on D string approx. 1" from pickup)
E |-----------------------|---------------------------------------------------|
B |-----------------------|---------------------------------------------------|
G |---------2--------4----|-2--------4----------------------------------------|
D |--(2)(2)-2--4--2--2--2-|-2--4--2--2--2-------------------------------------|
A |--(2)(2)----2--2-----2-|----2--2-----2-------------------------------------|
E |-----------------------|---------------------------------------------------|

(2nd Guitar repeat twice) (Enter at start of third repetition of 1st Guitar)
E |-----------------------|---------------------------------------------------|
B |-----------------------|---------------------------------------------------|
G |------------2----------|-2-------------------------------------------------|
D |--(2)(2)(2)-2--4--2----|-2--4--2-------------------------------------------|
A |--(2)(2)(2)----2--2----|----2--2-------------------------------------------|
E |-----------------------|---------------------------------------------------|
(1st Guitar pickslides)
(Both play) Riff before verse (Repeat twice) :-
E |---------------------------------------------------------------------------|
B |---------------------------------------------------------------------------|
G |---------------------------------------------------------------------------|
D |--2----------------5--3----------5--7--------------------------------------|
A |--2------7--5------3--1----------3--5--------------------------------------|
E |---------5--3--------------------------------------------------------------|

(Both play) Riff during verse (Repeat four times):-
E |---------------------------------------------------------------------------|
B |---------------------------------------------------------------------------|
G |---------------------------------------------------------------------------|
D |--2----------------5--7----------5-----------------------------------------|
A |--2------7--5------3--5----------3--7--------------------------------------|
E |---------5--3-----------------------5--------------------------------------|

(Both play) Riff before verse (Repeat twice) :-
E |---------------------------------------------------------------------------|
B |---------------------------------------------------------------------------|
G |---------------------------------------------------------------------------|
D |--2----------------5--3----------5--7--------------------------------------|
A |--2------7--5------3--1----------3--5--------------------------------------|
E |---------5--3--------------------------------------------------------------|

(Both play) Riff during verse (Repeat four times):-
E |---------------------------------------------------------------------------|
B |---------------------------------------------------------------------------|
G |---------------------------------------------------------------------------|
D |--2----------------5--7----------5-----------------------------------------|
A |--2------7--5------3--5----------3--7--------------------------------------|
E |---------5--3-----------------------5--------------------------------------|

(1st Guitar) Riff during solo (Repeat four times):-
E |---------------------------------------------------------------------------|
B |---------------------------------------------------------------------------|
G |---------------------------------------------------------------------------|
D |--4--4----4--4----4--3------------7----------------------------------------|
A |--2--2----2--2----2--1--7--5------5----------------------------------------|
E |------------------------5--3-----------------------------------------------|

(Both play) Riff before verse (Repeat twice) :-
E |---------------------------------------------------------------------------|
B |---------------------------------------------------------------------------|
G |---------------------------------------------------------------------------|
D |--2----------------5--3----------5--7--------------------------------------|
A |--2------7--5------3--1----------3--5--------------------------------------|
E |---------5--3--------------------------------------------------------------|

(Both play) Riff during verse (Repeat nine times):-
E |---------------------------------------------------------------------------|
B |---------------------------------------------------------------------------|
G |---------------------------------------------------------------------------|
D |--2----------------5--7----------5-----------------------------------------|
A |--2------7--5------3--5----------3--7--------------------------------------|
E |---------5--3-----------------------5--------------------------------------|

(Both play) Final Riff :-
E |---------------------------------------------------------------------------|
B |---------------------------------------------------------------------------|
G |---------------------------------------------------------------------------|
D |--2----------------5--7-7-7-7-7-etc..--2-----------------------------------|
A |--2------7--5------3--5-5-5-5-5-etc..--2-----------------------------------|
E |---------5--3--------------------------------------------------------------|

(2nd Guitar) Solo in the middle of the song (b slight bend) (Repeat twice) :-
E |-----------------------------------------------------------------------------|
B |------15-------15-------15---------------------------------------------------|
G |--16b------16b------16b-----14--14h16-14-------------------------------------|
D |-----------------------------------------------------------------------------|
A |-----------------------------------------------------------------------------|
E |-----------------------------------------------------------------------------|

E |---------------------------------------------------------------------------|
B |---------------------------------------------------------------------------|
G |------10-------10-------10-------------------------------------------------|
D |--11b------11b------11b-----9---9h11---7-----------------------------------|
A |---------------------------------------------------------------------------|
E |---------------------------------------------------------------------------|

4.HUMAN BEING

Don't Know

5.RAW POWER

Don't Know

6.AIN'T IT FUN

---------------------------------------------------------------------------|
----------------------------------------------------------10--12--10/12----|
--------------------------2/4------------------9------11-------------------|
-------------------2--4-----------------9--12-----12-----------------------|
----2----2--4--5-----------------------------------------------------------|
---------------------------------------------------------------------------|

------10--12fb12--10--12--10---------10b-----------------------------------|
--12--------------------------12----------12--10/12----12--10--------------|
---------------------------------------------------------------11--9b------|
---------------------------------------------------------------------------|
---------------------------------------------------------------------------|
---------------------------------------------------------------------------|

---------------------------------------------------------------------------|
----------------------12---------------------------------------------------|
------9------/11--14------14--9h10p9------9------10p9----------------------|
--12-----12---------------------------12-----12--------12--9--12p11--------|
---------------------------------------------------------------------12/14-|
---------------------------------------------------------------------------|

---------------------------------------------------------------------------|
---------------------------------------------------------------------------|
---------9------/11----11--9------9--------9------11--11--9------9---------|
--9--12-----12----------------12-----12-------12-------------12-----12--9--|
---------------------------------------------------------------------------|
---------------------------------------------------------------------------|

------------10-------------------------9-----------------------------------|
---------------------------------------10------------------------10-10-----|
--9------9fb--------9--------9------9fb--------9--------------9fb11-11-----|
-----12---------12-----12-------12---------12-----9----9--12---------------|
---------------------------------------------------------------------------|
---------------------------------------------------------------------------|

---------------------------------------------------------------------------|
---------------------------------------------------------------------------|
------9------9------10b--9------9------------------------------------------|
--12-----12-----12----------12-----11--12--9--11------9--------------------|
--------------------------------------------------12-----------------------|
---------------------------------------------------------------------------|

7.BUICK MACKANE

Don't Know

8.HAIR OF THE DOG

intro

Gb-------------------------------------------------------------------|
Db-------------2---------------------------------2-------------------|
Ab-----------2--------------5-7----------------2-------------5-7-----|
Eb--0--0-3-4----------0-3-0----------0---0-3-4---------0-3-0---------|


verse

play into through twice followed by

Gb-----------------------------------------------------------------------|
Db-----------------------------------------------------------------------|
Ab----------------------------------------------3------------------------|
Eb---5-5-5-5-5-5-5-5-5-5--0-3-4-5-5-5-5-5-5-5-5---5-3-0------------------|

play intro once

*end verse*

chorus

Gb--------------------------------------------------------------------|
Db--------------------------------------------------------------------|
Ab----------------7----5-7-7--------------------7---5-7-7-------------|
Eb--0----3--5--------------------0----3---5---------------------------|

9.ATTITUDE

Intro Riff

G|6666
D|6666 repeat x 7 all down strums and played fast
A|4444

Verse

B| 7777
G|66666666
D|66664444 repeat 4 times
A|4444

Chorus

B|66666666777777776666666677779999
G|55555555666666665555555566668888
D|33333333444444443333333344446666

10.BLACK LEATHER

Don't Know

11.YOU CAN'T PUT YOUR ARMS AROUND A MEMORY

Don't Know

12.I DON'T CARE ABOUT YOU

the whole song is basically

|C |G |D///|D///|
and the verse is

heavy palm mute:
|--------------|
|--------------|
|---------000--|
|---------000--|
|--2222222222--|
|--------------|


Get this song at amazon.com      Ebay     Ringtones Ringtones  


Learn to play: Songwriting, Piano, Harmonica, Guitar
More Guns 'N' Roses lyrics available at Muzikum

Related Guns N Roses Tabs

Welcome To The Jungle Solo tabs
Oh My God Solo tabs
Sekac tabs
Slash Licks tabs
November Rain tabs
Song Collection tabs
Its Alright tabs
Paradise City tabs
Salt Of The Earth tabs
November Rains Solo tabs
Yesterday tabs
Dont Cry tabs
Chinese Democracy Intro tabs
Mr. Brownstone (intro) tabs
You Cant Put Your Arms Around A Memory tabs
You Cant Put Your Arms tabs
Knockin On Heaven's Door tabs
November Rain Acoustic tabs
I Used To Love Her tabs
Knocking On Heavens Door tabs


Guitar Tabs









All tabs are property and copyright of their owners. All tabs provided for educational purposes only. Privacy Policy, DMCA