Guns N Roses

Song Collection Tabs



More from Guns N Roses

Guns N Roses Tabs
Guns N Roses Chords
Guns N Roses Bass
Guns N Roses Lyrics



From: sportiga@uoguelph.ca (Steve L Portigal)


Guns N Roses, "Don't Cry"



This is the main guitar line. It, or minor variations of it, repeats
throughout the song.

Am Dm G
E |-------0-------------1---------------3-----------------------|
B |---------1---------3---3---------------3---------------------|
G |-----2-----2-----2-------2---------0-----0-------0-----0-----|
D |---2---------0-0-----------------0-------------0-----0-------|
A |-0-------------------------0---2-----------0-3-----2-----3-2-|
E |-----------------------------3-------------------------------|


The chorus is basically:

F G Am


And, according to Guitar for the Practicing Musician, the loud
distorted chords in the middle of the song are:

C5 G/B A5 G5 F5 G5 A5




Double Talkin' Jive
(Guns N Roses - Use Your Illusion I)


Main Riff:

------------------------------------------------
------------------------------------------------
------------------------------------------------
---2--2------2--2-------------------------------
---2--2------2--2----------------2p--0----------
---0--0---0----------0---3p--0----------3p--0---

Palm mute the 6th string slightly.


Solo:

----------------------------------------------------------------------------
----------------------------------------------H-P-----H---------------------
---------[[1]]----[[1]]---H-P----4~~~~~-/-7-5-7-5--4-5~~~~----------------
2-/-3~~~-3---3~~~-3---3-2-3-2-----------------------------------------------
------------------------------2---------------------------------------------
----------------------------------------------------------------------------

------------------H-P-----H-----------------------H--P---------H------------
--8--6-5-6--/-8-6-8-6--5-6----/-12--/-15~~~-13--15-13----12-13------------
5---------------------------4-----------------------------------------------
----------------------------------------------------------------------------
----------------------------------------------------------------------------
----------------------------------------------------------------------------
H[[1]] H P
---15--13-13-12-13----13-12~~~-12-13-1210--H-------------------------------
13-----------------------------------------12-------------------------------
----------------------------------------------------------------------------
----------------------------------------------------------------------------
----------------------------------------------------------------------------
----------------------------------------------------------------------------
[[1/2]]
---H-P-----------------------------------------[[1]]------19------19~~~-----
8-12-8--H--P--------H-P-----------------------18----18-17-------------------
-------11-10-----9-10-9---1210---/14~~~--/17-------------------------------
----------------------------------------------------------------------------
----------------------------------------------------------------------------
----------------------------------------------------------------------------
[[1]]
-20---20~~------------20-19-20------------[[1/2]]-----19-18-19--------------
------------18-17-18------------18-17-18-17-----17~~------------------------
----------------------------------------------------------------------------
----------------------------------------------------------------------------
----------------------------------------------------------------------------
----------------------------------------------------------------------------
rake
---19----19--------x--------------------------------------------------------
17----17----17------x--------[[1]]------------------------------------------
---------------------x-9-12-10----10(10)(10)~~~--12--10--12--10-------------
----------------------------------------------------------------------------
----------------------------------------------------------------------------
----------------------------------------------------------------------------

----------------------------------------------------------------------------
----------------------------------------------------------------------------
x-x-10 9-(9)-(9)~~~--4-(4)-(4)-(4)~~~---------------------------------------
---------------------------------------6-(6)-(6)~~~-2-(2)-(2)~~~--2-/-3-----
----------------------------------------------------------------------------
----------------------------------------------------------------------------


--------------------------------------------7~~~~---------------------------
----------------3-/-6~~~--5-6-5-6-5-6---------------------------------------
-------2--3--5------------------------6--4----------------------------------
-3--5-----------------------------------------------------------------------
----------------------------------------------------------------------------
----------------------------------------------------------------------------


[Stuff Missing] -accoustic

Notes:
[[x]] - x step bend
~~~ - vibrato
H - Hammer on
P - Pull off
/ - Slide
(x) - Strike note while last one still ringing




ESTRANGED

GUNS N ROSES


Gm7 C Gm7 C
|--|----|------|--------|-----|----|------|--------|--------------------||
|--|----|------|--------|-----|----|------|--------|--------------------||
|--|----|------|--------|-----|----|------|--------|-----12b------------||
|--|----|------|--------|-----|----|------|--------|--------------------||
|--|-10-|-(10)-|-(10)s3-|--3--|-10-|-(10)-|-(10)s3-|-(3)----------------||
|--|----|------|--------|-----|----|------|--------|--------------------||

G5 C5
|------------|-------13b----10-----|----------------13-----|-------------|
|----11--15b-|----11------------13-|-13--13-----13b----13b-|-13---(13)s--|
|-12---------|-12------------------|-----------------------|-------------|
|------------|---------------------|-----------------------|-------------|
|------------|---------------------|-----------------------|-------------|
|------------|---------------------|-----------------------|-------------|

G5 C5
|------------------|-------13b---10-----|-------------13----|
|-----11--15b-(15)-|----11----------13b-|-13-(13)-13b----13-|
|-s12--------------|-12-----------------|-------------------|
|------------------|--------------------|-------------------|
|------------------|--------------------|-------------------|
|------------------|--------------------|-------------------|

Bb5 C5 G5
|------------------------||---------13----|-----------------|------------|
|-13---13b15p11-13p11----||-11--13b----13-|-13------13--12b-|--(12)bbbb--|
|---------------------12-||---------------|-----------------|------------|
|------------------------||---------------|-----------------|------------|
|------------------------||---------------|-----------------|------------|
|------------------------||---------------|-----------------|------------|

Bb5 C5 G5
|---------------------|------------13----|--------------|------|---------|
|(12)-13p12--13b13p12-|-11----13b-----13-|---13--13-----|------|---------|
|---------------------|------------------|----------14b-|-(14)-|-(14)----|
|---------------------|------------------|--------------|------|---------|
|---------------------|------------------|--------------|------|---------|
|---------------------|------------------|--------------|------|---------|

Riff A
Eb5 F5 G5 C5 Eb5 F5
|----|--------------||----------------------|------------------------|
|-11-|-(11)---(11)s-||----------13s15-(15)s-|-------13s15-(15)-13p12-|
|----|--------------||-------12-------------|----12------------------|
|----|--------------||----12----------------|-10---------------------|
|----|--------------||-10-------------------|------------------------|
|----|--------------||----------------------|------------------------|

G5 Eb5 F5 G5
|-----------------------|------------------------|-----------------------|
|-13p12------(15)-(15)s-|-------13s15-(15)-13p12-|-13p12--------15-(15)--|
|-------12--------------|----12------------------|-------12--------------|
|----------12-----------|-10---------------------|----------12-----------|
|-----------------------|------------------------|-----------------------|
|-----------------------|------------------------|-----------------------|








(end Riff A)
Eb5 F5 G5 Eb5 F5 Gm F Eb G
|-------|------|------------||----|------|------|------|---------15--17b-|
|-15s13-|-13b--|-11---11p10-||----|------|------|------|-----------------|
|-------|------|------------||-12-|-(12)-|-(12)-|-(12)-|-(12)------------|
|-------|------|------------||----|------|------|------|-----------------|
|-------|------|------------||----|------|------|------|-----------------|
|-------|------|------------||----|------|------|------|-----------------|

F Eb G5 F5 G5
|-(17)-|---------------------|----------|------------|-------------------|
|------|-s13--11-10---11br10s|8------8--|------------|-------------------|
|------|---------------------|----------|-10b---(10)-|-(10)--------------|
|------|---------------------|----------|------------|-------------------|
|------|---------------------|----------|------------|-------------------|
|------|---------------------|----------|------------|-------------------|


F5 G5
And what more could you ask from me?

F5
How could you say that I never need-

G5 Eb5 D5
-ed you_ when you took everything

F5
said you took everything from me?

w/Riff A
G5 C5 Eb5 F5 G5 C5 Eb5 F5 G5 Eb5 F5
|------------|--------------|--------------|---------------|----|--------|
|------------|--------------|--------------|---------------|----|--------|
|------------|--------------|--------------|---------------|----|--------|
|------------|----1-1-1-1-3-|--5-----------|-----1-1-1-1-3-|-5--|--(5)---|
|-----5--6-5-|-3------------|------5---6-5-|--3------------|----|--------|
|-3----------|--------------|--------------|---------------|----|--------|

G5 Eb5 Gm F Eb Gm F
|-----|-----||-----|------|------|------|-----15--15s17-|-18----18s20-|
|-----|-----||-----|------|------|------|---------------|-------------|
|-----|-----||-12--|-(12)-|-(12)-|-(12)-|-(12)----------|-------------|
|-(5)-|-(5)-||-----|------|------|------|---------------|-------------|
|-----|-----||-----|------|------|------|---------------|-------------|
|-----|-----||-----|------|------|------|---------------|-------------|

Eb Gm Gm7 C
|-(20)---18--17-18--15-|-15--||-(15)-----|-(15)--|-------------|--------||
|----------------------|-----||----------|-------|-------------|--------||
|----------------------|-----||----------|-------|-------------|----12b-||
|----------------------|-----||----------|-------|-------------|--------||
|----------------------|-----||-------10-|-(10)--|-(10)--10-s3-|-(3)----||
|----------------------|-----||----------|-------|-------------|--------||

G5 C5
|-------------|-------13b--10-----|---------------13----|
|----11--15b--|----11---------13b-|-13--(13)-13b-----13-|
|-12----------|-12----------------|---------------------|
|-------------|-------------------|---------------------|
|-------------|-------------------|---------------------|
|-------------|-------------------|---------------------|







Bb5 C5
|-----------13------------------||-----------13----|---------------------|
|-13----13b-----13br(13)p11-----||-11---13b-----13-|-(13)---13---12b-----|
|----------------------------12-||-----------------|---------------------|
|-------------------------------||-----------------|---------------------|
|-------------------------------||-----------------|---------------------|
|-------------------------------||-----------------|---------------------|

G5 Bb5 C5
|----------|-----------------|------------13---|------------13--15-------|
|-(12)-----|-------13p12--12-|-11----13b----13-|--13---13b---------------|
|-------14b|-(14)------------|-----------------|-------------------------|
|----------|-----------------|-----------------|-------------------------|
|----------|-----------------|-----------------|-------------------------|
|----------|-----------------|-----------------|-------------------------|

G5 C5
|-(15)-|-(15)---13p12-|-----|------||
|------|--------------|-13--|--13--||
|------|--------------|-----|------||
|------|--------------|-----|------||
|------|--------------|-----|------||
|------|--------------|-----|------||


(Bass gtr & piano)
|------------------------------------------------------------------------|
|------------------------------------------------------------------------|
|------------------------------------------------------------------------|
|------------------------------------------------------------------------|
|------------------------------------------------------------------------|
|------------------------------------------------------------------------|

C5 Eb5 C5 Eb5
|------------|----------------------|-------------|----------------------|
|------------|----------4---4p3-----|-3-----------|---------4--4p3-4p3---|
|-----5------|--------3---------5p3-|-----5-------|-------3-----------5p3|
|---5--------|----3h5---------------|---5---------|---3h5----------------|
|-3------3-5-|-6--------------------|---------3-5-|-6--------------------|
|------------|----------------------|-------------|----------------------|

C5 Eb5 Bb F C
|------------|---------------------|----|--|-1------------|-0------------|
|-3----------|-----------4--3------|-3--|--|-1------------|-1--------1---|
|-----5------|--------3-------5--3-|----|--|-2---------2--|-0------0-----|
|---5--------|---3--5--------------|----|--|-3-------3----|-2----2-------|
|--------3-5-|-6-------------------|----|--|-3-----3------|-3--3---------|
|------------|---------------------|----|--|-1---1--------|--------------|

G Bb C Bb C Bb F G/F
|-------------|----|-----|-----|--0--|-----|-------------|---------------|
|-3-----------|-3--|--1--|--3--|--1--|--3--|--1----------|-3-------------|
|-0---------0-|-3--|--0--|--3--|--0--|--3--|--2--------2-|-0--------0----|
|-0-------0---|-3--|--2--|--3--|--2--|--3--|--3------3---|-0------0------|
|-2-----2-----|-1--|--3--|--1--|--3--|--1--|--3----3-----|-2----2--------|
|-3---3-------|----|-----|-----|-----|-----|--1--1-------|-3--3----------|

Bb/F F C G Bb/F
|------------|---------------|-------------|--------------|----|
|-3--------3-|-1---------1---|-1---------1-|-3------------|-1--|
|-3------3---|-2-------2---0-|-0-------0---|-0--------0-0-|-3--|
|-3----3-----|-3-----3-------|-2-----2-----|-0------0-----|-3--|
|-1--1-------|-3---3---------|-3---3-------|-2----2-------|-3--|
|------------|-1-------------|-------------|-3--3---------|-1--|





C G F
|-------------------------|-0--|-----------|---------|
|-------------------------|-1--|-----------|---------|
|-------------------------|-0--|-----------|---------|
|-------3-------------3---|-2--|-----------|---------|
|-------------------------|-3--|-----------|---------|
|-1--1----1--1--1--1----1-|----|-----------|---------|

C G
|-------------------------|-0--|-----------|-0--------|------------------|
|-------------------------|-0--|--1--1-----|-1--------|-3----------------|
|-------------------------|-0--|--0-----0--|-0------0-|-0--------0-------|
|-------3-------------3---|-2--|--2--------|-2----2---|-0------0---------|
|-------------------------|-3--|--3--------|-3--3-----|-2----2-----------|
|-1--1----1--1--1--1----1-|----|-----------|----------|-3--3-------------|

F C G F C
|------------|--0--------|-------------|-------------|--0----------------|
|-1--------1-|--1--------|--3----------|--1--------1-|--1--------1-------|
|-2------2---|--0------0-|--0--------0-|--2------2---|--0------0---------|
|-3----3-----|--2----2---|--0------0---|--3----3-----|--2----2-----------|
|-3--3-------|--3--3-----|--2----2-----|--3--3-------|--3--3-------------|
|-1----------|-----------|--3--3-------|--1----------|-------------------|

G F C G F C
|--------|--0-----------|-------------|------------|-0-------------------|
|-3---1--|--1---------1-|--3----------|-1--------1-|-1---------1---------|
|-0---2--|--0-------0---|--0--------0-|-2------2---|-0-------0-----------|
|-0---3--|--2-----2-----|--0------0---|-3----3-----|-2-----2-------------|
|-2---3--|--3---3-------|--2----2-----|-3--3-------|-3---3---------------|
|-3---1--|--------------|--3--3-------|-1----------|---------------------|

G F C G F
|------------|------------|-----------|-------||
|-3----------|-1--------1-|-1-------1-|-3---1-||
|-0--------0-|-2------2---|-0-----0---|-0---2-||
|-0------0---|-3----3-----|-2---2-----|-0---3-||
|-2----2-----|-3--3-------|-3-3-------|-2---3-||
|-3--3-------|-1----------|-0---------|-3---1-||

Guitar solo
C Am
|---------------------------|---------------------------|
|---------------------------|---------------------------|
|-5----------------5h7p5----|-------------------5h7p5---|
|-------------5h7--------(7)|--------------5h7-------(7)|
|---------------------------|---------------------------|
|---------------------------|---------------------------|

C F
|---------------------------|------------------------------|
|-8-------------------------|----------------------------6-|
|-----7b---7--5h7p5s4-5p4---|------------------------5s7---|
|-------------------------5-|--5b-3-5---3--5--3--5s7-------|
|---------------------------|---------5--------------------|
|---------------------------|------------------------------|

C
|-----6---6------8-8-8-----8-----8----|-------------------------------|
|-6s8---8---8s10-------11b---11b---11b|-11----------------------------|
|-------------------------------------|------------------17h19p17-----|
|-------------------------------------|------------17h19---------(19)-|
|-------------------------------------|-------------------------------|
|-------------------------------------|-------------------------------|





F5
|------------------------------------||
|15b-15-p13--15b--15b-15-13--13-15-13||
|----------14---14---------14--------||
|------------------------------------||
|------------------------------------||
|------------------------------------||

Guitar solo II
C5 G5
|------18----------18-----------|----18----------18----------------------|
|-18b-----18----18----18--16----|-18b---18----18----18--16---------------|
|----------------------------17-|--------------------------17------------|
|-------------------------------|----------------------------------------|
|-------------------------------|----------------------------------------|
|-------------------------------|----------------------------------------|

F5 C5 G5 C5
|---------------------------|----------------------|---------------------|
|-15--15--------------------|----------------------|---------------------|
|--------17----15-----------|----------------------|--------15-----------|
|------------------17-15-13-|-----15b-----------13-|(13)--15b-15b-13-15b-|
|---------------------------|-15----------13h15----|---------------------|
|---------------------------|----------15----------|---------------------|

G5
|---------------------------------------15---|
|---------------------15h16p15--15-16-18--18-|
|------15-17-17--15-17--------17-------------|
|-15-17--------17----------------------------|
|--------------------------------------------|
|--------------------------------------------|

F5
|-18--15h18p15--15---------------------|---------------------------------|
|---18--------15---18b--18--16--16-----|---------------------------------|
|-----------------------------17--17p15|-17-17-15--15--------------------|
|--------------------------------------|---------17--17-15-13-15-13----15|
|--------------------------------------|---------------------------15-13-|
|--------------------------------------|---------------------------------|

C5
|------------|-----------------------------|----------------------------||
|------------|-----------------------------|----------------------13----||
|------------|-----------------------------|-------------------12-------||
|-(15)-------|-(15)------------------------|----------------14----------||
|------------|-----------------------------|-------------15-------------||
|------------|-----------------------------|----------------------------||

G F C
|--------------|-------------|---------10s12-----|
|-12--------12-|-10-------10-|-8-----------------|
|-12------12---|-10-----10---|-9-----------------|
|-12----12-----|-10---10-----|-10----------------|
|-10--10-------|-8---8-------|-------------------|
|--------------|-------------|-------------------|

G F C G5
|--10------------|------------|-0------------|-0--||
|----------13s15-|--10--13s15-|-1s13---------|-1--||
|-------12-------|------------|-0------------|-0--||
|-----10---------|------------|-2------------|-2--||
|----------------|------------|-3----0-------|-3--||
|----------------|------------|---------3--0-|----||





A5 G5 F5 G5
I knew the storm was getting clo- er

A5 G5 F5 G5
And all my friends said I was high._________

A5 G5 F5 G5 A5 G5 F5 E
But evrything we've ever known's here. I never wanted it to die


D5 C5 F C
|---|---|-1---|-(1)--|-0-||
|---|---|-1---|-(1)--|-1-||
|---|---|-2---|-(2)--|-0-||
|---|---|-3---|-(3)--|-2-||
|---|---|-3---|-(3)--|-3-||
|---|---|-1---|-(1)--|---||





I DonUt Care About You GNR


Remember tune down 1/2 step
"the spaghettii incident"
the whole song is basically

|C |G |D///|D///|
and the verse is

heavy palm mute:
|--------------
|--------------
|---------000--
|---------000--
|--2222222222--
|--------------





Knocking On Heavens Door

By

GunsUnURoses

Key: H - hammer-on
/ - slide
P - pull-off
^ - half bend
^^ - full bend
~ - vibrato

This is the picking at the very beginning of the song. The picking varies
throughout, and you should do whatever feels best instead of trying to
restrict yourself to how it sounds on record. GN'R is constantly mutating
this song in concert anyway (even doing it with a reggae beat).
G5 D C
-3---3--------------2-0-------|-----------------0--------------------|--------
-3-----3---3------3-----3---3-|----------1--------------1------------|--------
-0-------0------2---------2---|-0------0---0----------0---0-0------0-|-------
-0------------0---------------|-0-2----------2------2-------0-2------|--------
------------------------------|--H---3-----------------------H---3---|--------
-3----------------------------|--------------------------------------|--------

This is the picking for the first line. Again, the picking will vary
throughout the song.
G5 D Am
-3--------------2-------2-0-------|-0-----H-------0----------------------|
-3---3-------3--3-------3-------0-|-1----0-1-------------1---------------|
-0---0-----0----2----2-------2----|-2--2-----2---------2---2------0---0--|
-0---0-----0----0----0------------|-2----------2-----2-------0-2----2----|
----------------------------------|-0-------------------------H----------|
-3--------------------------------|--------------------------------------|


Song goes like this:

Intro:
Twice with picking G5 D C
Twice just power chords G5 D C

Verse 1 (with picking)
G5 D Am
Mamma take this badge from me
G5 D C
I can't use it anymore
G5 D Am
It's getting dark, too dark to see
G5 D C
Feels like I'm knockin' on heaven's door

Chorus (if you're really concerned about playing it like the
CD, listen to it for rhythm. But this song has been done by so
many people so differently that you might as well give it your own
feel.)
G5 D5 C5
Knock, knock, knockin' on heaven's door,
C5
Hey, hey, hey, hey, yeah
G5 D5 C5
Knock, knock, knockin' on heaven's door,
C5
(no lyrics)
G5 D5 C5
Ooh, knock, knock, knockin' on heaven's door
C5
Ooh yeah

G5 D5 C5
Knock, knock, knockin' on heaven's door
C5
Hey, hey, hey, hey, yeah

First Guitar Solo
G D C
------------------------------------------------------
----^^---P---------15--^------~~~~~~~~~~~~------------
-12-14-14-12-14-------14-12-12-------------------12---
------------------------------------------13/14-------
------------------------------------------------------
------------------------------------------------------
G D C
---------------P------------P--------P------------------15----
15/17---15---13-12-13/15--13-12---13--12----------12-13----13-
-------------------------------------------~~~~~~~------------
-----------------------------------------14-------------------
--------------------------------------------------------------
--------------------------------------------------------------
G ^^ D ^^ ^^ C
--~~~-------15-17--17--17--17--15-----------------------------
12---15/17----------------------------------------------------
--------------------------------------------------------------
--------------------------------------------------------------
--------------------------------------------------------------
--------------------------------------------------------------
G ^^ ^^ D C
--20-20-19-20--19-20--20-20-20---~~~~~----------------------------------
-------P-----------------------17------^^----^^-------------------------
---------------------------------------19-19-19-19-^-----^--------------
---------------------------------------------------19-19-19-19----------
---------------------------------------------------------------17--17---
------------------------------------------------------------------------


Additional lyrics:
Mama, put my guns in the ground
I can't shoot them anymore
That cold black cloud is comin' down
Feels like I'm knockin' on heaven's door

Basically there are lots of "knockin' on heaven's door"s throughout the rest



Locomotive

Guns N Roses


intro
|-------------------|-------------------------|--------------------------|
|-------------------|-------------------------|--------------------------|
|-------------------|-------------------------|--------------------------|
|-------------------|-------------------------|--------------------------|
|-0-0---0-0---0-0---|-0---0-0---0-0-0---0-----|-0---0-0---0-0-0---0-0----|
|-----3-----3-----2-|---2-----2-------2---3-5-|---3-----3-------0-----2--|


|--------------------------|-------------------------|-------------------|
|--------------------------|-------------------------|-------------------|
|------------------------5-|-2-----------------------|-------------------|
|------------------------5-|-2-----------------------|-------------------|
|-0---0-0---0-0-0---0------|---0-0-0---0-0-0---0-----|0---0-0---0-0------|
|---2-----2-------2---3----|---------3-------3---0-2-|--2-----2-----3-2-0|


|-------------------|-----|-----|----------------------------------------|
|-------------------|-----|-----|----------------------------------------|
|-7h9--7h9-7---7--9-|-----|-----|-9--7h9---------------------------------|
|-7h9--7h9-7---7--9-|--s--|--s--|-9--7h9---5----5------------------------|
|-7----7---7---7--7-|-----|-----|-7--7-----5----5------------------------|
|-------------------|-----|-----|----------3----3------------------------|



One in a Million

Acoustic guitar..

[E-1] [E-2] [D] [C#] [C]
EADGBE EADGBE EADGBE EADGBE EADGBE
022100 x7990x x5770x x4660x x355xx


Beginning of song..

Strum

[E-1] (slide) [E-2] [D] [C#] (play twice)
| | | |||| / || | | |||| || | | |||| || | | ||||

[C]
|| | | |||||||||||||||
^
(slow distortion comes in)

second guitar...comes in after acoustic finishes.


-------|----------------------------------------------------------
-------|-2-2h3p2-2-2---1-1----------------------------------------
-5-5-5-|-2-2-----2-2-2-0-0-0-0-3p0---0-0-0-0-----4-0--------------
-5-5-5-|-2-2h4p2-2-2-2-2-2-2-2-2---2-0-0-0-0---3---0--------------
-3-3-3-|---------------3-3-3-3-3---3-2-2-2-2-2-------3---3---3/5--
-------|-----------------------------3-3-----3-------1-0-1-0-1/3--
(fill) (Main guitar riff)

^ ^ ^ ^ ^ ^ ^ ^ ^ ^
^(accented notes)


play it over and over until you're fingers bleed


(this is distorted guitar..light distortion)



that was how I played it....I don't know if it's right or not..




"Paradise City" by GUNS N'ROSES.
Album: Appetite for destruction.

Hi Everybody!

There are my TAB of "Paradise City" by GUNS N'ROSES.
Do you "must" to play quickly! like in the song...

G C F

E-------3-----3---------3----------------3------3------3-------------
B--------------------------3--------3----------------------3-------3--
G----------0---------0---------0----0--------0------0----------0---2-
D----0------------------------------2------------------------------3--
A-----------------------------------3---------------------------------
E----3------------3---------------------------------------------------

C G

E----3-------3--------3------3---------3------3-------3------3-------I
B--------3-------1--------3-------3--------3-------------------------I
G----------------0----------------0-----------------------0----------I
D----------------2----------------2----------------0-----------------I
A----------------3----------------3----------------------------------I
E--------------------------------------------------3-----------------I


This is the end of first part (introduction, guitar-solo), after the
sound of the whistle the guitar continues "like" that
(like, not equal...):

E-----3---1---2---3---1---2---3---1---3---1--------------I
B---------------------------------------------3---1------I
G--------------------------------------------------------I
D--------------------------------------------------------I
A--------------------------------------------------------I
E--------------------------------------------------------I


This part, with distorsion sounds more authenticy!

Note for Beginers or quickly readings: if you think that the Tab of the
introduction is difficult to play , you can try that:

Chords: G C F C G

F.E. with G chord:
Play the chord up to down (6th string to 1st, E to E) quickly, and
the strings E A D E A D ; change to C and do the same; BUT with F, C
chord play the strings : E A D (only one time) and G to end...Come to
the G initial and repeat ... (Is better you listen de Tape, CD or LP).


--
+----------------------------------------------------------------------------+
| Steve Portigal ** User-Interface Dude ** looking for work, too!!! |
| View my M.Sc. thesis online at: http://130.43.3.18/ (World Wide Web) |
| Remove Jamesb@nevada.edu as the "official" guitar tablature archivist! |
| He's big, he's purple, he's your best friend................. |
+----------------------------------------------------------------------------+


Get this song at amazon.com      Ebay     Ringtones Ringtones  


Learn to play: Songwriting, Piano, Harmonica, Guitar
Also available at Muzikum: Guns 'N' Roses - Song Collection lyrics

Related Guns N Roses Tabs

Since I Don't Have You tabs
Move To The City tabs
Paitince tabs
Used To Love Her tabs
Don't Cry tabs
Perfect Crime tabs
Blues tabs
Knockin On Heavens Door tabs
Somewhere Over The Rainbow tabs
Rhiad And The Bedouins tabs
Slash Licks tabs
Blues Solo tabs
Patience 2001 Intro tabs
Knocking On Heavens Door tabs
Garden Of Eden tabs
Live And Let Die tabs
Pretty Tied Up tabs
Song Collection tabs
DustN Bones tabs
November Rain Acoustic Tab tabs


Guitar Tabs









All tabs are property and copyright of their owners. All tabs provided for educational purposes only. Privacy Policy, DMCA