Guns N Roses

So Fine Bass Tabs



More from Guns N Roses

Guns N Roses Tabs
Guns N Roses Chords
Guns N Roses Bass
Guns N Roses Lyrics




Verse:
G|---------------------------------------------------------------------|
D|---------------------------------------------------------------------|
A|---1----1--1--1--2---1---2--2--2--4---1---1--1--1--2---1---2--2--2-4-|
E|-2---4-------------2---4------------2---4------------2---4-----------|

G|------------------------------------------------------|
D|------------------------------------------------------|
A|----------------2-2-2-2-2-2---------------2-2-2-2-2-2-|
E|-0-0-0-0-4-4-4-4-----------0-0-0-0-4-4-4-4------------|

Chorus:
G|------------------------------------------------------------------|
D|------------------------------------------------------------------|
A|-44444444----------------444444--44444444----------------44444444-|
E|---------0000000022222222------24--------0000000022222222---------|



Get this song at amazon.com      Ebay     Ringtones Ringtones  


Learn to play: Songwriting, Piano, Harmonica, Guitar
Also available at Muzikum: Guns 'N' Roses - So fine lyrics

Related Guns N Roses Bass Tabs

Bad Obsession bass
Don't Damn Me bass
Don't Cry bass
Out Ta Get Me bass
Bad Apples bass
Big Dumb Sex bass
Dust N Bones bass
Chinese Democracy bass
I Used To Love Her bass
Knocking On Heavens Door (original Song) bass
Night Train bass
Knockin on heavans door bass
Shot Gun Blues bass
Civil War bass
So Fine bass
It s so easy bass
Its So Easy bass
Anything Goes bass
Dont Damn Me bass
Yesterdays bass


Guitar Tabs









All tabs are property and copyright of their owners. All tabs provided for educational purposes only. Privacy Policy, DMCA