Guns N Roses

Shot Gun Blues And Lyrics Bass Tabs



More from Guns N Roses

Guns N Roses Tabs
Guns N Roses Chords
Guns N Roses Bass
Guns N Roses Lyrics




tuned half step down
G|----------------------|
D|-14/1-----------------| pick fast on this part
A|----------------------|
E|----------------------|

G|---------------------------------------------------------------:|
D|---------------------------------------------------------------:|
A|-6-6-6-6----6-6-6--3---3-3-3-3----4-4-4-4-4-4-4-4-4-4-4-4-4-4-4:|
E|---------------------------------------------------------------:|

G|-----------------------------------------------------------------|
D|-----------------------------------------------------------------|
A|-2-2----2-2-2-2---2-2-2-2---2-2-2-2------------------------------|
E|-----------------------------------------------------------------|

G|------------------------------------------|
D|------------------------------------------|
A|-4-4----4-4-4-4---4-4-4-4---4-4-4-4-4-----|
E|------------------------------------------|

G|---------------------------------------------|
D|---------------------------------------------|
A|-6-6----6-6-6-6---6-6-6-6---6-6-6-6----------|
E|---------------------------------------------|


G|-----------------------------------------------------------------|
D|-----------------------------------------------------------------|
A|-----------------------------------------------------------------|
E|-6-6-6-6---6-6-6-6----56-6-56-6-55----------------------------|

G|------------------------------------------------------------------|
D|------------------------------------------------------------------|
A|------------------------------------------------------------------|
E|-4-4-4-4---4-4-4-4----34-4-34-4-34-----------------------------|


G|-----------------------------------------------|
D|-----------------------------------------------|
A|-4-4-4-4---4-4-4-4----34-4-34-4-34----------|
E|-----------------------------------------------|

G|-----------------------------------------------|
D|-----------------------------------------------|
A|-6-6-6-6---6-6-6-6----56-6-56-6-56----------|
E|-----------------------------------------------|

I got the shotgun blues
Shotgun blues
I said I don't know what I did
But I know I gotta move
I got the shotgun blues
Shotgun blues
I can't wait here forever
I got too much here to lose


An now you're blowin' smoke
I think you're one big joke
Me...I gotta lot to learn
An I'm still waitin' for the heads to turn
You say I walk a line
Fuck they move it every time
You walk a mile in my shoes
And then you tell me 'bout singin' the blues
You get what you pay for
An freedom's real high priced
An while your rippin' off children
Somebody's fuckin' your wife
It's never made a difference
It's only how you survive


I got the shotgun blues
Shotgun blues
I said I don't know what I did
But I know I gotta move
I got the shotgun blues
Shotgun blues
I can't wait here forever
I got too much here to lose
An now you ask me why
I said it's do or die
I'll stick it right in your face
And then I'll put you
In your motherfuckin' place
And you...you can suck my ass
An I think it's so low class
Me...I'm just so concerned
I'm still waitin' for your ass to burn
Ooooh you want a confrontation
I'll give you every fuckin' chance
With your verbal masturbation
Me...I just like to dance
How's that for provocation
I'm just makin' a stance
An I'm tired of the frustration
Of livin' inside of your lies
And I'm wired on indignation
I said somebody's got to die


I got the shotgun blues
Shotgun blues
I said I don't know what I did
But I know I gotta move
I got the shotgun blues
Shotgun blues
I can't stay here forever
I got too much here to lose
I got the shotgun blues
Shotgun blues
Listen motherfucker
You're about to pay your dues
I got the shotgun blues
Shotgun blues
If you're goin' up against me
Then you know you're gonna lose
I know
I know (there's ways - that we - can find)
I know
I know
You think anyone with an I.Q. over fifteen
Would believe your shit...fuckhead
Nothin' but a fuckin' pussy



Get this song at amazon.com      Ebay     Ringtones Ringtones  


Learn to play: Songwriting, Piano, Harmonica, Guitar
More Guns 'N' Roses lyrics available at Muzikum

Related Guns N Roses Bass Tabs

Sweet Child O Mine bass
Don't Cry (standard Tuning) bass
Get In The Ring bass
Out Ta Get Me bass
So Fine bass
Dont Cry bass
Coma bass
Sweet Child O Mine Bass Tab bass
Immigrants And Faots bass
Garden Of Eden (the Normal Version) bass
Paradise City bass
Knocking On Heavens Door (original Song) bass
Think About It bass
Somewhere Over The Rainbow bass
Perfect Crime (duff's Version) bass
Brakdown bass
14 Years bass
My Michelle bass
Since I Dont Have You bass
Estranged bass


Guitar Tabs









All tabs are property and copyright of their owners. All tabs provided for educational purposes only. Privacy Policy, DMCA

Online converter - videoconverter.com