Guns N Roses

Rocket Queen Bass Tabs



More from Guns N Roses

Guns N Roses Tabs
Guns N Roses Chords
Guns N Roses Bass
Guns N Roses Lyrics

Date: Sat, 22 Jul 2000 01:04:21 -0400
From: "Mike Annecchino" 
Subject: g/guns_n_roses/rocket_queen.btab

Band: Guns N' Roses
Song: Rocket Queen
Album: Appetite for destruction
My name is Mike Annecchino and this is all the work of my ears and my 6yrs. 
playing experience

When Duff would play this he would use a chorus effect throughought the 
whole song

Dear Axl or any members in GnR I just want to let you know that I didn't 
listen to your music I heard and I understand the musicianshipof all 5 of 
you guys. You were so creatively gifted all of you and I can never get 
enough of your music. I've been listening to your shit since I was 9 ('94) I 
still can't get enough of it. I love you guys and I feel like I know you as 
a friend.

Sincerely,

Mike



T= thumb
P=pop



intro      repeat twice
							    T  P
----------|----------------------------------------------------4|
----------|------------------3/4---------3/4---3/4----3/4-------|
----2/4---|-------------------------------------------------2---|
----------|--0----2----0---2------0--2--------------------------|
		hold for 4 beats



---------------------------------
---------------------------------
---------------------------------
---0---2---5------0-0---2-----5-5

keep playing then right before slash playing your line  go like this really 
fast on the D string


D-4-4-4-4-4-4-4-4-4-


Then it goes back to this when Axl comes in

-------------------------------
------------------------------
-------------------------------
---0---2--5-----0-0----2----5-5

THen play till when he sings "I can do you a favor then..." you play the 
groove on the A string
once
					"then you'll do whatever I like"
-----------------------------------------------------------------
---------------------------------------2-2-2-2-2------------------
--0---2---5---0-0-----2---5-5----------------------------------
--------------------------------------------------------------

then on the chorus play:(twice)

----------------------------------------------------------------
---------------------------------------------------------------
-----------------------------------------0---------2------------
-2--0---2---2-------4---0-----4---4----------------------0-------2--

That's basically it if you have any comments email me at 
bigwhitemike33@hotmail.com

I'm the hugest Axl rose fan i need to meet him bad if he or anyone else 
wanna to talk to me about
Gnr past, present, future email me. i love Axl, Slash, Duff, izzy, gilby, 
dizzy,and ted "zig zag"
. Talk to me there aren't enough gn'r fans left.

"Wasn't life like roses when we still had our guns?" -William Axl Rose
Get this song at amazon.com      Ebay     Ringtones Ringtones  


Learn to play: Songwriting, Piano, Harmonica, Guitar
Also available at Muzikum: Guns 'N' Roses - Rocket Queen lyrics

Related Guns N Roses Bass Tabs

Its So Easy bass
Get In The Ring bass
Patience (live) bass
Live And Let Die bass
Right Next Door To Hell bass
Word Up bass
Paradise City bass
Think About It bass
14 Years bass
Used To Love Her bass
Out Ta Get Me bass
Paradise City (standard Tuning) bass
Since I Don't Have You bass
I Dont Care About You bass
Nice Boys bass
Think About You bass
Pretty Tied Up bass
November Rain bass
Don' Cry bass
Bass Solo bass


Guitar Tabs









All tabs are property and copyright of their owners. All tabs provided for educational purposes only. Privacy Policy, DMCA