Guns N Roses

Perfect Crime (duff's Version) Bass Tabs



More from Guns N Roses

Guns N Roses Tabs
Guns N Roses Chords
Guns N Roses Bass
Guns N Roses Lyrics



Tabbed By: Garth Rhodes
Tuning: 1/2 a step down
G-F#, D-C#, A-G#, E-D#

s = slide
h = hammer-on
p = pull-off
H = hold/ring
b = bend

This version is again true to the CD, so if you listen you can here how accurate this tab
is, you just have to adapt to the speed, which is pretty damn fast! A challenging song,
it took me a while to decipher this song by ear, but I've finally got it. And here it is...remember
that Duff ALWAYS uses a pick.

INTRO:
F#------------------------------------------------
C#------------------------------------------------
G#--0------0--------------00-3--1-----------------
D#----------------5H---------------3-0h3-0h5h6-33-

VERSE:
F#------------------------------------------------
C#----------------------------------------7---7---
G#--7-5-0-3-----------------7-5-0-3---------------
D#----------5-5-55p3h5-5-5----------5-5-5---5-----

F#------------------------------------------------
C#------------------------------------------------
G#--7-5-0-3-----------------7-5-0-3---------------
D#----------5-5-55p3h5-5-5----------5-5-5-4-5-6---

F#----------------------------------------4----4--
C#--4-2---0-----------------4-2---0---------------
G#------0---2-2-22-0h2-2-2------0---2-2-2---2-----
D#------------------------------------------------

F#----------------------------------------
C#--4-2---0-------------------------------
G#------0---2-2-22-0h2-2-2-0-2-3-4-5-6-7--
D#----------------------------------------

F#------------------------------------------------
C#----------------------------------------7---7---
G#--7-5-0-3-----------------7-5-0-3---------------
D#----------5-5-55p3h5-5-5----------5-5-5---5-----

F#--------------------------
C#--------------------------
G#--7-5-0-3-----------------
D#----------5-5-55p3h5-5-5--

CHORUS: "Perfect crime, god damn it it's a ..."
F#----------------------------------------------------------------------------
C#----------------------------------------------------------------------------
G#--3--1--------------3--1------------------3--1--------------3--1------------
D#--------3-0h3-3-33--------3-0-3-0h5h6-33--------3-0h3-3-33--------3----12s1-

"Keep the demons down and drag the skeletons out ..."
F#----------------------------------------------------------------------------
C#----------------------------------------------------------------------------
G#-----------------------------------------------------77p55h77p55h77-5-------
D#--0-0-0-0-0-0-0-0-0-0-0-0-0-0-0-0-0-0-0-0-0-0-0-0-0-0----------------7-6-5-3

"You wanna fuck with me, don't fuck with me ..."
F#---------------------------------------------------------------------------------
C#-----5h7---------------------------3h5-------5h7---------------------------------
G#--7-7---7------1h3-------0h2--0-5-5---5-0-7-7---7------1h3--0h2h3--1-------------
D#----------0-3-3---3-1-0-0---0---------------------0-3-3---3-----------3-0h3-3-33-

F#----------------------------------------------------------
C#----------------------------------------------------------
G#--3--1------------------3--1--------------3--1------------
D#--------3-0-3-0h5h6-33--------3-0h3-3-33--------1--------

BASS SOLO:
F#----------------------------------------------------3b--
C#------------------------------------3h5-----------------
G#----------------------1b--------------------------1-----
D#--3--1--3---3--1--3-3------3--1--3--------3--1--3-------

F#-----------------------------------------------------------------
C#-----------------------------------------------------------------
G#------------1b-----------1-1-3---------------1b-------------1-11-
D#--3--1--3-33-----3--1--3--3------3--1--3-0-33-----3--1--3-3------

"Ostracized but that's all right, I was thinkin' about somethin' myself ..."
F#---------------------------------------------------------------------------
C#--s5-55-555-55-5-55-33-33-3-3-33-3-33s55-55-5-5-55-5-55--------------------
G#---------------------------------------------------------------------------
D#--------------------------------------------------------12s3-4-5-6-7-8-----

SOLO:
F#--------------------------------------------------------------------------------
C#--------------------------------------------------------------------------------
G#----------------------------------------------------------------3-3-3-3-5-------
D#--12s5-5-55-3h5-55-555-5-5-55-5s8-8-8-888-3h5-55-55-3h5-5-5-555-----------3-4-5-

F#--------------------------------------------------------------------------
C#--------------------------------------------------------------------------
G#--2-2-22-0h2-22-222-2-2-22-2s5-5-5-555-0h2-22-22-0h2-0h2-2-22-2-3-4-5-6-7-
D#--------------------------------------------------------------------------

VERSE:
F#------------------------------------------------
C#----------------------------------------7---7---
G#--7-5-0-3-----------------7-5-0-3---------------
D#----------5-5-55p3h5-5-5----------5-5-5---5-----

F#--------------------------
C#--------------------------
G#--7-5-0-3-----------------
D#----------5-5-55p3h5-5-5--

CHORUS: "Perfect crime, god damn it it's a ..."
F#----------------------------------------------------------------------------
C#----------------------------------------------------------------------------
G#--3--1--------------3--1------------------3--1--------------3--1------------
D#--------3-0h3-3-33--------3-0-3-0h5h6-33--------3-0h3-3-33--------------12s3

CHORUS: "Perfect crime, god damn it it's a ..."
F#--------------------------------------------------------------------------------------
C#----------------------------55555555---------------------------------5-5-5-55555555555
G#--3--1--------------3--1--------------3--1-------------------3--1---------------------
D#--------3-0h3-3-33--------3-----------------3-0h3-0h5h6-33---------3------------------

"Perfect crime, god damn it it's a ..."
F#------------------------------------------------------------------------------
C#--3h555p3h555p3h555p3h555p3h555p3h555p3h555p3h555p3h555p3h555-3---------------
G#----------------------------------------------------------------5-1-3--1------
D#--------------------------------------------------------------------------3s--



Get this song at amazon.com      Ebay     Ringtones Ringtones  


Learn to play: Songwriting, Piano, Harmonica, Guitar
More Guns 'N' Roses lyrics available at Muzikum

Related Guns N Roses Bass Tabs

Coma (full Transcription) bass
Sweet Childo'mine bass
Raw Power bass
Reckless Life bass
Bad Apples bass
Since I Don Have You bass
Shot Gun Blues bass
Knockin On Heavens Door (standard Tunin) bass
Coma bass
Garden Of Eden bass
Knocking On Heaven's Door bass
My Michelle bass
Garden Of Eden (the Insane Version) bass
Locamotive bass
Breakdown bass
Paradice City bass
Perfect Crime bass
Knockin on heavans door bass
Pretty Tied Up bass
Knocking On Heavens Door bass


Guitar Tabs









All tabs are property and copyright of their owners. All tabs provided for educational purposes only. Privacy Policy, DMCA