Guns N Roses

Paridise City Tabs



More from Guns N Roses

Guns N Roses Tabs
Guns N Roses Chords
Guns N Roses Bass
Guns N Roses Lyrics




Articulation:
Hammer : h
Pull off : p
Bend : b
Reverse : r
Slide : s
Hold note : ~
Mute string : x
hammer from
nowhere : `
Upstroke : V

Riff A:(Slash)
eb|----------3---------------3---------|----------3-----3---------3---------|
Bb|------------0---3-----------3---3---|--0h1-------1---------------1---1---|
Gb|--0-----------0---------------0-----|--0-----------0-----0---------0-----|
Db|--0---------------------------------|--0h2-------------------------------|
Ab|--2---------------------------------|------------------------------------|
Eb|--3---------------------------------|------------------------------------|

eb|----------3---------------3---------|----------3-----3-------------------|
Bb|------------1---1-----------1---1---|------------1-----------------------|
Gb|--0h2---------2---0-----------0-----|--0-----------0-------2h4-2h4-2-0---|
Db|--0h3-------------0h2---------------|--0---------------------------------|
Ab|------------------0h3---------------|--2---------------------------------|
Eb|------------------------------------|--3---------------------------------|

Riff B:(Slash+Izzy)
eb|--3---------------------------------|------------------------------------|
Bb|--3------------------------------V--|---------------------------------V--|
Gb|--4----------------------------4-4--|--5----------------------------5-5--|
Db|--5----------------------------5-5--|--5----------------------------5-5--|
Ab|--5----------------------------5-5--|--3----------------------------3-3--|
Eb|--3----------------------------3-3--|--3----------------------------3-3--|

eb|------------------------------------|------------------------------------|
Bb|--------------V------------------V--|---------------------------------V--|
Gb|--2---------2-2-5--------------5-5--|--4----------------------------4-4--|
Db|--3---------3-3-5--------------5-5--|--5----------------------------5-5--|
Ab|--3---------3-3-3--------------3-3--|--5----------------------------5-5--|
Eb|--1---------1-1-3--------------3-3--|--3----------------------------3-3--|

eb|--3---------------------------------|------------------------------------|
Bb|--3------------------------------V--|---------------------------------V--|
Gb|--4----------------------------4-4--|--5---------------------------------|
Db|--5----------------------------5-5--|--5----------------------------1010-|
Ab|--5----------------------------5-5--|--3----------------------------1010-|
Eb|--3----------------------------3-3--|--3----------------------------8-8--|

eb|------------------------------------|------------------------------------|
Bb|--------------V------------------V--|---------------------------------V--|
Gb|--10--------1010--------------------|--7----------------------------4-4--|
Db|--10--------101010-------------1010-|--5----------------------------5-5--|
Ab|--8---------8-8-10-------------1010-|--5----------------------------5-5--|
Eb|--8---------8-8-8--------------8-8--|--7----------------------------3-3--|


Riff C:(Slash+Izzy)
Play Riff B
eb|------------------------------------------|---------------------------------------|
Bb|--------------------15--------------------|-----------------15--------------------|
Gb|--------12-12----------14b16-14b16r14p12--|--------12-12-------14b16-14b16r14p12--|
Db|--13s14-------14p12-----------------------|--12s14-------12-----------------------|
Ab|------------------------------------------|---------------------------------------|
Eb|------------------------------------------|---------------------------------------|

eb|---------------------------------------|-------------------------------------|
Bb|--13b15---13b15---13-------------------|-------------------------------------|
Gb|-----------------------12h14p12----14--|--b16~~~~~~~~~~~~~~~~----------------|
Db|--------------------------------15-----|-------------------------------------|
Ab|---------------------------------------|-------------------------------------|
Eb|---------------------------------------|-------------------------------------|

eb|------------------------------------------|---------------------------------------|
Bb|--------------------15--------------------|-----------------15--------------------|
Gb|--------12-12----------14b16-14b16r14p12--|--------12-12-------14b16-14b16r14p12--|
Db|--13s14-------14p12-----------------------|--12s14-------12-----------------------|
Ab|------------------------------------------|---------------------------------------|
Eb|------------------------------------------|---------------------------------------|

eb|---------------------------------------|-------------------------------------|
Bb|--13b15---13b15---13b15r13-13---12b13--|--12b13r12b13r12b13r12b13-12~~~~~~~--|
Gb|---------------------------------------|-------------------------------------|
Db|---------------------------------------|-------------------------------------|
Ab|---------------------------------------|-------------------------------------|
Eb|---------------------------------------|-------------------------------------|


Riff D:(Slash+Izzy)
eb|----------------------------------|
Bb|----------------------------------|
Gb|----------------------------3-----|
Db|--5---3-4-5---3-4-5--`5--`5-3-----|
Ab|--5---3-4-5---3-4-5--`5--`5-------|
Eb|----------------------------------|
| |
eb|----------------------------------|
Bb|----------------------------------|
Gb|----------------------------------|
Db|--5---3-3-5---3-3-5-x-5-x-5-8-----|
Ab|--5---3-3-5---3-3-5-x-5-x-5-8-----|
Eb|--3---1-1-3---1-1-3-x-3-x-3-6-----|

Riff E:
eb|----------------------------------|
Bb|----------------------------------|
Gb|----------------------------3-----|
Db|--5--p3--h5p3h5p3`5--`5--`5-------|
Ab|----------------------------------|
Eb|----------------------------------|
| Palm muted.............. |
eb|----------------------------------|
Bb|----------------------------------|
Gb|----------------------------------|
Db|--5---3-3-5---3-3-5-x-5-x-5-8-----|
Ab|--5---3-3-5---3-3-5-x-5-x-5-8-----|
Eb|--3---1-1-3---1-1-3-x-3-x-3-6-----|

Riff F:(Slash+Izzy)
eb|----------------------------------|----------------------------------|
Bb|----------------------------------|----------------------------------|
Gb|----------------3h5---------------|----------------3h5p3---3---------|
Db|--5--p3---5-5-5-------------------|--------------5-------5---5p3h5---|
Ab|----------------------------------|----------------------------------|
Eb|----------------------------------|----------------------------------|
| Palm muted.... | |
eb|----------------------------------|----------------------------------|
Bb|----------------------------------|----------------------------------|
Gb|------------------5---------------|----------------5-5-3-3-2---------|
Db|--5---3-3-5-5-5---5---------------|--------------5-5-5-3-3-2-5-3-5---|
Ab|--5---3-3-5-5-5---3---------------|--------------5-3-3-1-1-0-5-3-5---|
Eb|--3---1-1-3-3-3---3---------------|--------------3-3-3-1-1-0-3-1-3---|

Chorus:(Izzy)
eb|------------------------------------|------------------------------------|
Bb|--------------------------------V---|--------------------------------V---|
Gb|--4---------------------------4-4---|--5---------------------------5-5---|
Db|--5---------------------------5-5---|--5---------------------------5-5---|
Ab|--5---------------------------5-5---|--3---------------------------3-3---|
Eb|--3---------------------------3-3---|--3---------------------------3-3---|

eb|------------------------------------|------------------------------------|
Bb|--------------V-----------------V---|--------------------------------V---|
Gb|--2---------2-2-5-------------5-5---|--4---------------------------4-4---|
Db|--3---------3-3-5-------------5-5---|--5---------------------------5-5---|
Ab|--3---------3-3-3-------------3-3---|--5---------------------------5-5---|
Eb|--1---------1-1-3-------------3-3---|--3---------------------------3-3---|

Solo:(Slash+Izzy)
Play the Rhythm of Riff D (once for each bar)
eb|----------------|----------------------|---------------------|--------------3-----|
Bb|----------------|----------------------|----------------6----|--------------------|
Gb|----------------|--5b7---r5-3-5-3------|--3h5----b7-5h7---5--|--5b7----r5p3-------|
Db|--5-3-5v--------|-----------------3h5--|---------------------|--------------------|
Ab|----------------|----------------------|---------------------|--------------------|
Eb|----------------|----------------------|---------------------|--------------------|

eb|-------8-8--------------------------|--------------------------|----------------------------|-----------------------|
Bb|--8b10-----10r8p6h8-----8-8---------|--------------------------|----------------------------|-----------------------|
Gb|--------------------5b7-----7r5-----|--5b7-7-7-----------------|----------------------------|-----------------------|
Db|--------------------------------10--|--------------------8h10--|-------10------8-10---8-----|-------10------8---10--|
Ab|------------------------------------|----------7p5---5---------|--10-------10-----------10--|--10--------10---------|
Eb|------------------------------------|--------------8---8-------|----------------------------|-----------------------|

eb|-----------|
Bb|-----------|
Gb|--9--------|
Db|----10-----|
Ab|-------10--|
Eb|-----------|

Riff G:
D5 D5 D5 D5 C5 C5
eb|---------------------------------------------------------------------------------------------------|
Bb|-----13h15-xx----13h15-xx----13h15-xx----13h15-xx----11h13p11-------13-xx-------13p10-------13-xx--|
Gb|--14----------14----------14----------14----------12----------12-------xx----12-------12-------xx--|
Db|-----------------------------------------------------------------10----xx-10-------------10----xx--|
Ab|---------------------------------------------------------------------------------------------------|
Eb|---------------------------------------------------------------------------------------------------|

Last Chorus:
Play Chorus Rhythm
eb|------------------------------------------|---------------------------------------|
Bb|--------------------15--------------------|-----------------15--------------------|
Gb|--------12-12----------14b16-14b16r14p12--|--------12-12-------14b16-14b16r14p12--|
Db|--13s14-------14p12-----------------------|--12s14-------12-----------------------|
Ab|------------------------------------------|---------------------------------------|
Eb|------------------------------------------|---------------------------------------|

eb|---------------------------------------|------10----------------------------------|
Bb|--13b15---13b15---13-------------------|------------------------------------------|
Gb|-----------------------12h14p12----10--|--b12----10b12r10----12---10--------------|
Db|--------------------------------15-----|------------------10---------12-10--------|
Ab|---------------------------------------|-----------------------------------13-10--|
Eb|---------------------------------------|------------------------------------------|

eb|-----------13b15---13b15r13--------|--------------------------------17--------------|
Bb|----------------------------15-13--|--13p11----13-------13----15b17----17r15p13-----|
Gb|-----------------------------------|--------12-------------12-------------------14--|
Db|-----------------------------------|------------------------------------------------|
Ab|-----------------------------------|------------------------------------------------|
Eb|-----------------------------------|------------------------------------------------|

eb|---------------------------|------------------------------------------------|
Bb|--------13-12--------------|-12b13---r12~~~~~~~~---12b13---r12~~~~~~~~~~~---|
Gb|--12b14-------14r12p10-----|------------------------------------------------|
Db|-----------------------12--|------------------------------------------------|
Ab|---------------------------|------------------------------------------------|
Eb|---------------------------|------------------------------------------------|

End Solo:(Slash+Izzy)
Play this riff for the rhythm.
eb|------------------------------------|------------------------------------|
Bb|------V-V-----V-V-----V-----V---V---|------V-V-----V-V-----V-----V---V---|
Gb|------------------------------------|--5---5-5-5---5-5-5---5-5---5-5-5---|
Db|--5---5-5-5---5-5-5---5-5---5-5-5---|--5---5-5-5---5-5-5---5-5---5-5-5---|
Ab|--5---5-5-5---5-5-5---5-5---5-5-5---|--3---3-3-3---3-3-3---3-3---3-3-3---|
Eb|--3---3-3-3---3-3-3---3-3---3-3-3---|--3---3-3-3---3-3-3---3-3---3-3-3---|

eb|------------------------------------|------------------------------------|
Bb|------V-----V---V-----V-----V---V---|------V-----V---V-----V-----V---V---|
Gb|------------------5---5-5---5-5-5---|------------------------------------|
Db|--3---3-3---3-3-3-5---5-5---5-5-5---|--5---5-5---5-5-5-5---5-5---5-5-5---|
Ab|--3---3-3---3-3-3-3---3-3---3-3-3---|--5---5-5---5-5-5-5---5-5---5-5-5---|
Eb|--1---1-1---1-1-1-3---3-3---3-3-3---|--3---3-3---3-3-3-3---3-3---3-3-3---|



Get this song at amazon.com      Ebay     Ringtones Ringtones  


Learn to play: Songwriting, Piano, Harmonica, Guitar
Also available at Muzikum: Guns 'N' Roses - Paridise City lyrics

Related Guns N Roses Tabs

Patience tabs
Locomotive tabs
Its So Easy tabs
Patience Long tabs
Patience Intro tabs
The Blues tabs
Mr. Brownstone (intro) tabs
Double Talkin Jive tabs
One In A Million tabs
Blues tabs
Breakdown tabs
Its Alright tabs
Back Of Bitch tabs
Anything Goes tabs
Yesterday tabs
Heartbreak Hotel tabs
New Rose tabs
Patience 2001 Intro tabs
Big Bad Billy tabs
Paradise City tabs


Guitar Tabs









All tabs are property and copyright of their owners. All tabs provided for educational purposes only. Privacy Policy, DMCA

Online converter - videoconverter.com