Guns N Roses

Paridice City Tabs



More from Guns N Roses

Guns N Roses Tabs
Guns N Roses Chords
Guns N Roses Bass
Guns N Roses Lyrics




B=Bend

R=Release

=Half bend, =Quarter bend, 1=One and a half bend

/=Slide

H=Hammer

P=Pull off

%=Repeat

X=Mute string

E|---------------------------|---------------------------------|---------------------------------|-----------------------------------|
B|---------------------------|---------------------------------|---------------------------------|-----------------------------------|
% G|---------------------------|--------------------------3b --|------5----3---4---5-----3---4---|---5---3---5---3---5---3b -------|
D|--5----3---4---5-----3--4--|------5---3---5---3---5----------|---------------------------------|-----------------------------------|
A|---------------------------|---------------------------------|---------------------------------|-----------------------------------|
E|---------------------------|---------------------------------|---------------------------------|-----------------------------------|

PM--------|
E|----------------------------------|---------------------------------|---------------------------------|------------------------------------|
B|----------------------------------|---------------------------------|---------------------------------|------------------------------------|
G|------------------------------/5--|--(5)--3-4--5-3-5--3b ---------|--(3)------------------3---------|---5---3------------3b -----------| %
D|--3----1---2---3---0-3------------|---------------------------------|---------5---3---5---------5-----|------------5--3-----------5--3-----|
A|----------------------------------|---------------------------------|---------------------------------|------------------------------------|
E|----------------------------------|---------------------------------|---------------------------------|------------------------------------|

E|---------------------------------|---------------------------------|----------------------------------|------------------------------------|
B|---------------------------------|---------------------------------|--5b R----3----5b ---3--------|---5b R----3-------5--------------|
G|----------------3----------------|-------------------3-------------|--5b R----3----5b ---3--------|---5b R----3-------5--------------|
D|-----5----------------5------5---|--(5)------3---------------5-----|----------------------------------|------------------------------------|
A|---------------------------------|---------------------------------|----------------------------------|------------------------------------|
E|---------------------------------|---------------------------------|----------------------------------|------------------------------------|

E|--------------------------------|-----------------------------------|------------------------------------|---------------------------------|
B|--6------------X---------5------|-(5)-------------------------3-----|-(3)b R----------------3----------|--------------------------3\-----|
G|--5------------X---------5------|-(5)-------------------------3-----|-(3)b R----------------3----------|---3---2------------------3\-----|
D|--------------------------------|-----------------------------------|----------------5P3---5--------5----|-------------5---3---------------|
A|--------------------------------|-----------------------------------|------------------------------------|---------------------------------|
E|--------------------------------|-----------------------------------|------------------------------------|---------------------------------|

E|---------------------------------|--------------------------------------|----------------------------------------|
B|------------------15b1----------|--15b1----15b1----15b1----15b1----|--15b1---15--14--13----------13---15---|
G|--------12-----------------------|--------------------------------------|------------------------15--------------|
D|--/14----------------------------|--------------------------------------|----------------------------------------|
A|---------------------------------|--------------------------------------|----------------------------------------|
E|---------------------------------|--------------------------------------|----------------------------------------|

E|----------------------------------------------------------------------|
B|--13h15p13-\--11h13p11-(11)h13p11\10-----11p10-------------10h11------|
G|----------------------------------------------------12----------------|
D|----------------------------------------------------------------------|
A|----------------------------------------------------------------------|
E|----------------------------------------------------------------------|

E|----------------------10--15------------------15--------------|------------15--------15-------------15------15-----------15---------|
B|--10-----10/13bfull--------------18bfull--------------18p15---|--18bfull ------18-------18bfull--------18------18bfull------18p15--|
G|-----12-------------------------------------------------------|---------------------------------------------------------------------|
D|--------------------------------------------------------------|---------------------------------------------------------------------|
A|--------------------------------------------------------------|---------------------------------------------------------------------|
E|--------------------------------------------------------------|---------------------------------------------------------------------|

E|-------------15--------15------------15-----15-----------------|-18b1 --------(18) \------|
B|------------------18-------18full--------------------18p15-----|---------------------------|
G|--17bfull------------------------------------------------------|---------------------------|
D|---------------------------------------------------------------|---------------------------|
A|---------------------------------------------------------------|---------------------------|
E|---------------------------------------------------------------|---------------------------|

E|---3--------3--------3---------3-------|-------------------|---------------------|-------------------|
B|------6p3------6p3------6p3-------6p3--|-------------------|---------------------|-------------------|
G|---------------------------------------|-------%-----------|-------%-------------|-------%-----------|
D|---------------------------------------|-------------------|---------------------|-------------------|
A|---------------------------------------|-------------------|---------------------|-------------------|
E|---------------------------------------|-------------------|---------------------|-------------------|

E|----------6---5h6p5-------------------------------------|---------------------------------------------------------|
B|---6/8---------------------8p6--8-----5h6h8---5h6h8-----|---6p5---------------------3------------3----------------|
G|--------------------------------------------------------|-----------7p5---5bfull--------5bfull-------5bfull---5---|
D|--------------------------------------------------------|---------------------------------------------------------|
A|--------------------------------------------------------|---------------------------------------------------------|
E|--------------------------------------------------------|---------------------------------------------------------|

E|-------------------------------------------------------------|
B|-------------------------------------------------------------|
G|--3h5p3-------------3----------------------------------------|
D|--------------3h5------------5p \/\/\/ VIBRATO \/\/\/\ 3-----|
A|-------------------------------------------------------------|
E|-------------------------------------------------------------|

(Wah on) (Wah off)
E|---------------------------------------|------------------------------------|-----------------------------|----------------------------|
B|---------------------------------------|------------------------------------|-----------------------------|----------------------------|
G|---------------------------------------|------------------------------------|-----------------------------|----------------------------|
D|---5p3--------------3------------------|------------------------------------|-----------------------------|-------3------5--3----------|
A|----------5---3h5-----\3----1----------|-----------------------------1------|--3b R---1--3--1-----------|--3/5-----5-----------5--3--|
E|-----------------------------------3---|---1b ---1---3----(3)----------3--|---------------------3---X---|----------------------------|

E|---------------------------|----------------------------|-------------------------------|------------------3-------------3------------------|
B|-3-------------------------|-3--------------------------|--3----------------------------|---------------3----------------3----3-------------|
G|-3------------------3------|-3-------------------3------|--3--------------------3-------|---5bfull------------5bfull--------------5bfull----|
D|------5p3h5----5-------5---|------5--5-----5--------5---|----------5-------5--------5---|---------------------------------------------------|
A|---------------------------|----------------------------|-------------------------------|---------------------------------------------------|
E|---------------------------|----------------------------|-------------------------------|---------------------------------------------------|

E|--------3--------------------|------3-----5b ----------3---|------------------------------------------------|-------3------------|
B|----3-------5b R-b ------|---3--------5b -------3------|---5b slow bend --------pre bend -5 R-b --|-(5)-------6bfull---|
G|------------5b R-b ------|-------------------------------|---5b ------------------pre band -5-R-b --|-(5)----------------|
D|-----------------------------|-------------------------------|------------------------------------------------|--------------------|
A|-----------------------------|-------------------------------|------------------------------------------------|--------------------|
E|-----------------------------|-------------------------------|------------------------------------------------|--------------------|

E|--3-----------------3----6p3------8bfull R- (8)p---|-6------8p6---------10bfull---10--|--9--8------------8--9--10-----------------|
B|------6bfull----6--------------6-------------------|-----8----------8p6---------------|--------10bfull-------------10b R (10)---|
G|---------------------------------------------------|----------------------------------|-------------------------------------------|
D|---------------------------------------------------|----------------------------------|-------------------------------------------|
A|---------------------------------------------------|----------------------------------|-------------------------------------------|
E|---------------------------------------------------|----------------------------------|-------------------------------------------|

E|-----------------------------------------------|
B|-p8-----------10------------8------10----------|
G|--------9-------------9---------------------9--|
D|-----------------------------------------------|
A|-----------------------------------------------|
E|-----------------------------------------------|

E|---------------------------10--|---------------------------|----------------------------|---------------------------------------------|
B|-8--10-----8--10bfull----------|-10------8----10-------8---|--10------8---10------8-10--|--8h10--11---10h11p10p8---------10-----------|
G|---------9---------------------|------9--------------9-----|------9-------------9-------|--------------------------10----------10-----|
D|-------------------------------|---------------------------|----------------------------|---------------------------------------------|
A|-------------------------------|---------------------------|----------------------------|---------------------------------------------|
E|-------------------------------|---------------------------|----------------------------|---------------------------------------------|

E|-------------------------------------------|-10h12-------10h12h13---15p12h13/17--13h15--|-15h17-------/18----15h17-15--------15-------------15--|
B|-8------10h11p10-------10h11h13--10h11h13--|----------13--------------------------------|----------18-------------------18--------18bFull-------|
G|----/12------------12----------------------|--------------------------------------------|-------------------------------------------------------|
D|-------------------------------------------|--------------------------------------------|-------------------------------------------------------|
A|-------------------------------------------|--------------------------------------------|-------------------------------------------------------|
E|-------------------------------------------|--------------------------------------------|-------------------------------------------------------|

E|-------------------------------------------------------------------|-X--18b --------------|
B|--18p15-18p15--------15-18p15-------15------15---------------------|----17b -----17\14----|
G|----------------18--------------18------18--------17bfullRP15------|------------------------|
D|---------------------------------------------------------------17--|------------------------|
A|-------------------------------------------------------------------|------------------------|
E|-------------------------------------------------------------------|------------------------|

E|-----------------------------------12-13h15p13p12-----13p12---|
B|------------------12h13h15-------------------------15---------|
G|-12h14h15-----------------------------------------------------|
D|--------------------------------------------------------------|
A|--------------------------------------------------------------|
E|--------------------------------------------------------------|

E|----------12---------------------------------------------|-------------------------------------------------------------|
B|-15-13-------15p13-12-15-13p12-------14p13p12-----15p14p-|-p13p12-----------12p10-----------10-------------------------|
G|---------------------------------15-----------14---------|------------14p12--------12p10-------12p10\8--12p10p9--------|
D|---------------------------------------------------------|-------------------------------------------------------12----|
A|---------------------------------------------------------|-------------------------------------------------------------|
E|---------------------------------------------------------|-------------------------------------------------------------|

pm---| pm---| pm
E|------------------------------------------------------------------------|--------------------------------------------------|
B|------------------------------------------------------------------------|--------------------------------------------------|
G|--10p9-----------9------------------------------------------------------|--------------------------------------------------|
D|---------12-10-------12p10---9-12-10b R----------10bfull---------10---|-------10---------------10--------------10---0----|
A|---------------------------------------------13---------------13--------|--------------------------------------------------|
E|------------------------------------------------------------------------|---------------10--10---------10--10--------------|

E|------------------------------------------------|------------------------------------------------------------------------|
B|------------------------------------------------|------------------------------------15h16h17---------------15h16h17-----|
G|------------------------------------------------|--15h16h17--------------15h16h17---------------15h16h17-----------------|
D|---------------------------15h16h17---15h16h17--|-------------15h16h17---------------------------------------------------|
A|--15h16h17----15h16h17--------------------------|------------------------------------------------------------------------|
E|------------------------------------------------|------------------------------------------------------------------------|

Heavy pm--------------------------------------- Lighter pm------------------------------
E|---------------15--------------------|---------------------------------------|------------|-----------------------------------------|
B|-16h17h18----------18bfull-----------|---------------------------------------|------------|-----------------------------------------|
G|-------------------------------------|---------------------------------------|------------|-----------------------------------------|
D|-------------------------------------|---------------------------------------|----%-------|---3--4--5--3--4--5--3--4--5--3--4--5----|
A|-------------------------------15\---|---------------------------------------|------------|-----------------------------------------|
E|-------------------------------------|--3--1--2--3--1--2--3--1--2--3--1--2---|------------|-----------------------------------------|

Light pm------------------------------------------------|
E|--------------------------------------|---------------------------------------|---------------------------|-----------------------|
B|--------------------------------------|---------------------------------------|---------------------------|-----------------------|
G|--------------------------------------|----------------3---------3slow bend---|--(3)----5b (5) p3h5-----|-(5) slow bend full----|
D|--3--4--5--3--4--5--3--4--5--3--4--5--|-----3--4--5-------5-------------------|---------------------------|-----------------------|
A|--------------------------------------|---------------------------------------|---------------------------|-----------------------|
E|--------------------------------------|---------------------------------------|---------------------------|-----------------------|

E|---------------------------|-------------------------------------------|
B|---------------------------|-------------------------------------------|
G|--5--3--5------3----3b --|-------5 \/\/\/\/ Vibrato \/\/\/\/\/\/ ----|
D|------------5--------------|-------------------------------------------|
A|---------------------------|-------------------------------------------|
E|---------------------------|-------------------------------------------|

E|---------------------12--------------------------|----------------------------------------|---------------------------------------|
B|---------------15--------15--12------------------|----------------------------------------|---------------------------------------|
G|--14bfull---------------------------14bfull-14---|--12--------14--------12------12--12----|--14p12--------12--12-----12--14--12---|
D|-------------------------------------------------|--------14--------14--------------------|------------14-------------------------|
A|-------------------------------------------------|----------------------------------------|---------------------------------------|
E|-------------------------------------------------|----------------------------------------|---------------------------------------|

E|----------------------------------------------|------------------------------------------|----------------------------------------------|
B|-------------12--15---------------------------|------------------------------13--14--15--|----------13--15----------13--15--------13----|
G|--14bfull-------------14bfull R---12----------|--14------12--14 (14b )------------------|--14b ----------14b ---------14b --------|
D|------------------------------------------14--|-------14---------------------------------|----------------------------------------------|
A|----------------------------------------------|------------------------------------------|----------------------------------------------|
E|----------------------------------------------|------------------------------------------|----------------------------------------------|

E|----------------------------------------------------------|
B|-15----------13--15-------------13--15p13-----------13----|
G|-----14b ------------14b ----------------15b -------|
D|----------------------------------------------------------|
A|----------------------------------------------------------|
E|----------------------------------------------------------|

E|------------------------------------------------------------------------------|-------------|------------|--------------|
B|-15p13----------13--15p13----------13-15p13-----------13-15-13-----------13---|-------------|------------|--------------|
G|--------15b ---------------15b -------------15b -----------15b --------|------%------|-----%------|-------%------|
D|------------------------------------------------------------------------------|-------------|------------|--------------|
A|------------------------------------------------------------------------------|-------------|------------|--------------|
E|------------------------------------------------------------------------------|-------------|------------|--------------|

Slower Free Time
E|---------------------------------------------------------------------------------------------|-------------------|
B|-15bfull--13h15p13\12--13--12h13p12----------12----------------------------------------------|-------------------|
G|-------------------------------------14p12-------14bfull(14) p12-------14p12-----------------|------------5b ---|
D|------------------------------------------------------------------14----------12h14-12bfull--|-R-----------------|
A|---------------------------------------------------------------------------------------------|-------------------|
E|---------------------------------------------------------------------------------------------|-------------------|

E|----------------------------------------------------------------------------------|-----------------------------|
B|----------------------------------------------------------------------------------|-----------------------------|
G|--5bR(5)p3---5p3-------5bR(5)p3-----5-----3b ----3b --------------------------|-------------------------3---|
D|--------------------5--------------5-----5-------5-------5--3---------------------|---------------/5------------|
A|---------------------------------------------------------------5--4--3--3bR --1--|----3--1----2----------------|
E|----------------------------------------------------------------------------------|-----------------------------|

Slide
E|------------------------|-----------------|-------------|
B|------------------------|-----------------|-------------|
G|--(3)-- slow bend ----|---(3)-----------|-------------|
D|------------------------|-----------------|-------5\----|
A|------------------------|-----------------|-------5\----|
E|------------------------|-----------------|-------3\----|.
.



Get this song at amazon.com      Ebay     Ringtones Ringtones  


Learn to play: Songwriting, Piano, Harmonica, Guitar
More Guns 'N' Roses lyrics available at Muzikum

Related Guns N Roses Tabs

Use Your Illusion 1 Album tabs
November Rain Acoustic tabs
Paradise City(entire Song) tabs
Live And Let Die (greatest Hits) tabs
Night Train tabs
Patience tabs
Don't Cry tabs
Oh My God Solo tabs
14 Years tabs
There Was A Time tabs
Rhiad And The Bedouins tabs
Noevember Rain Acoustic tabs
I Dont Care About You tabs
Double Talkin Jive tabs
Word Up tabs
Live Performance Collection tabs
Jumping Jack Flash tabs
Shotgun Blues tabs
Yeasterdays tabs
You Cant Put Your Arms tabs


Guitar Tabs









All tabs are property and copyright of their owners. All tabs provided for educational purposes only. Privacy Policy, DMCA