Guns N Roses

Paradise City (standard Tuning) Bass Tabs



More from Guns N Roses

Guns N Roses Tabs
Guns N Roses Chords
Guns N Roses Bass
Guns N Roses Lyrics




Artist: Guns N Roses
Title: Paradise City (standard Tuning)

Song: Paradise city
Album: Apetite for destruction

Adv.: This is the easyest version for that magnific song, there
are lots of versions,
and all are original, but this version is for beginners

I found out that you dont actually need to tune down half a step
to play this, and it will

stil sound the same

Intro bit 1 bit 2 bit 3
G:----------------| |-----------------------| |----------------|
D:----------2-----| |----------------4-4-44-| |----------2---4-|
A:-----2------2---| |-----2------2----------| |-----2------2---|
E:2-------------2-| |2---------0---2--------| |2---------------|

Verse
G:---------------|
D:---------------|
A:-------------0-|
E:2-012-0120202--|

Chorus
G:---------------------------------------------------------------------|
D:------------------------2-----4-4-442--------------------------2---4-|
A:------------2----2-2------2----------4-------------2----2-2------2---|
E:2--0-2-2-------2------------2----------2--0-2-2-------2--------------|

Bridge 1
G:---------------| |---------------|
D:---------------| x4 |---------------| x4
A:-------------0-| |-------------2-|
E:2-012-0120202--| |4-234-2342424--|

Bridge 2
G:------------------------|
D:------------------------| repeat
A:44444-44444-22222-22222-|
E:------------------------|

Outro (im not very sure on the outro so i wil just tab the basic
riff)
G:--------------------------------------|
D:---------------2222222----------------|
A:--------2222222-------2222222---------|
E:22222222---------------------22222222-|






Get this song at amazon.com      Ebay     Ringtones Ringtones  


Learn to play: Songwriting, Piano, Harmonica, Guitar
More Guns 'N' Roses lyrics available at Muzikum

Related Guns N Roses Bass Tabs

Down On The Farm bass
Bad Apples bass
Sweet Child O Mine Standard Tuning bass
Back Off Bitch bass
Locamotive bass
Reckless Life bass
Right Next Door To Hell bass
Out Ta Get Me bass
My Michelle bass
Chinese Democracy bass
Bass Solo bass
Get In The Ring bass
Ain`t It Fun bass
Paradice City bass
I Used To Love Her bass
Knockin On Heavens Door bass
Think About You bass
It s so easy bass
Welcome To The Jungle Bass Tab bass
November Rain bass


Guitar Tabs









All tabs are property and copyright of their owners. All tabs provided for educational purposes only. Privacy Policy, DMCA