Guns N Roses

Paradise City Bass Tabs



More from Guns N Roses

Guns N Roses Tabs
Guns N Roses Chords
Guns N Roses Bass
Guns N Roses Lyrics




/ = Slide
p = Pull off

Tune down 1/2 step

The old version was not very good. So I revised it and added the tab
for the double time outro. This song ROCKS and is hella fun to play.
Especially the ending. Enjoy.


Intro 1
Gb|-----------------------------------
Db|--------------------3--------------
Ab|-----------3-------------3---------
Eb|--3---------------------------3----

Intro 2
Gb|---------------------------------0---0-0----
Db|--------------------------------------------
Ab|-----------3-------------3------------------
Eb|--3-----------------1----------3-----------3

Intro 3
Gb|------------------------------0--0-0--
Db|--------------------3-----------------
Ab|-----------3-------------3------------
Eb|--3-----------------------------------


Verse
Gb|------------------------------------------------
Db|------------------------------------------------
Ab|------------------------1------------------3--1-
Eb|--3-1-2-3-1-2-3-1-3-1-3----3-1-2-3-1-2-3-1------

Gb|------------------------------------------------
Db|------------------------------------------------
Ab|------------------------1-------------3---------
Eb|--3-1-2-3-1-2-3-1-3-1-3----3-1-2-3--------------

Gb|-------------------------
Db|-------------------------
Ab|--3b--1-3-1--------------
Eb|------------1-3----------


Chorus 1
Gb|--------------------------------0---0-0-0------------
Db|-----------------------3------------------3-0--------
Ab|------------3---3-3-------3-------------------1------
Eb|-3---3-3---------------------3-----------------------

Chorus 2
Gb|-----------------------------------------------------
Db|-----------------------3------5------3---------------
Ab|------------3---3-3-------3--------------3---5-3-----
Eb|-3---3-3---------------------------------------------

Solo
Gb|------------------------------------------------
Db|------------------------------------------------ Do this part 2 times
Ab|------------------------1------------------3--1-
Eb|--3-1-2-3-1-2-3-1-3-1-3----3-1-2-3-1-2-3-1------

Gb|------------------------------------------------
Db|------------------------------------------------
Ab|------------------------3-----------------------
Eb|--5-3-4-5-3-4-5-3-5-3-5----5-3-4-5-3-4-5-3-5-3-5

Gb|------------------------------------------------
Db|------------------------------------------------
Ab|------------------------1------------------3----
Eb|--3-1-2-3-1-2-3-1-3-1-3----3-1-2-3-1-3-1--------


So far away...
Gb|--------------------------------------------------------------------
Db|--------------------------------------------------------------------
Ab|--5-5-5-5-5--5-5-5-5-5--3-3-3-3-3--3-3-3-3-3-5-5-5-5-5--5-5-5-5-5-0-
Eb|--------------------------------------------------------------------
1st 2nd
Gb|--------------------------|-----------
Db|--------------------------|-----------
Ab|--3-3-3-3-3--3-3-3-3-3-0--|--3---0-1--
Eb|--------------------------|-----------


Bridge to Outro
Gb|-----------------0---0--0-----------------------
Db|--3--3------------------------------------------
Ab|--------3--3---------------------------3---3--3-
Eb|--------------3-------------3---3--3------------
1st 2nd
Gb|-----------------0--0-0-0--------|--------------0---------0------------
Db|--3--3--------------------3-0----|--3--3-------------------------------
Ab|---------3--3------------------1-|--------3--3-------------------------
Eb|---------------3-----------------|---------------------------------15\-


Double Time Outro
Gb|-------------------------------------------------------------------------
Db|-------------------------------------------------------------------------
Ab|------------------------------------3---3-3-3-3---3--3-3-3-3-3-3---3-----
Eb|--3---3-3-3-3---3--3-3-3-3-3-3---3---------------------------------------

1st
Gb|------------------------------------|------------------------------------
Db|--3---3-3---3-3-3-------------------|------------------------------------
Ab|-------------------3---3-3---3-3-3--|------------------------------------
Eb|------------------------------------|--3---3-3-3-3---3----3---3-3---3-3--

2nd 3rd
Gb|-------4-4-5-5-6-6----4-4-5-5-6-6--|-----------------/12--------/12------
Db|--/5-5-------------/5--------------|-------------------------------------
Ab|-----------------------------------|-------------------------------------
Eb|-----------------------------------|--3----------------------------------

Gb|-------------------------------------------------------------------------
Db|-----5-------5-------5-------5-------------------------------------------
Ab|-------------------------------------------------------------------------
Eb|-3-------3-------3-------3-----------------------------------------------

Gb|-------------------------------------------------------------------------
Db|----------------------------------------------------------3--3-3--3-3-3--
Ab|----------------------------------3-3-3-3-3-3-3-3--3-3-3-----------------
Eb|--3-3-3-3-3-3-3-3--3-3-3-3--3-3-3----------------------------------------

Gb|-------------------------------------------------------------------------
Db|----------------5-5-3-3----------5-5-3-3---------------------------------
Ab|-3--3-3--3-3-3----------5-5-1-1----------5-5-1-1-------------------------
Eb|-------------------------------------------------------------------------

Gb|-------------------------------------------------------------------------
Db|-------------------------------------------------------------------------
Ab|------------------------------------3---3-3-3-3---3--3-3-3-3-3-3---3-----
Eb|--3---3-3-3-3---3--3-3-3-3-3-3---3---------------------------------------

1st
Gb|------------------------------------|--------------------12-12-10-10-------------
Db|--3---3-3---3-3-3-------------------|--/5-5-5-5-5-5-5-5--------------12-12-8-8---
Ab|-------------------3---3-3---3-3-3--|--------------------------------------------
Eb|------------------------------------|--------------------------------------------
2nd 3rd
Gb|--0---4p0--0-5p4--0-4p0--0-5p4------|------4-4-5-5-6-6-7-7-6-6-5-5-4-4---
Db|------------------------------------|--5-5-------------------------------
Ab|------------------------------------|------------------------------------
Eb|------------------------------------|------------------------------------
4th
Gb|------------------------------------|------------------------------------
Db|--5---3-4-5--3-4---5---5-4-3--3-4---|------------------------------------
Ab|------------------------------------|------------------------------------
Eb|------------------------------------|------------------------------------
5th
Gb|------------------------------------------------------------------------
Db|--/5-5-5-5-5-5-5-5-5-5-5-5-5-5-5-5----/5-5-5-5-5-5-5-5-5-5-5-5-5-5-5-5--
Ab|------------------------------------------------------------------------
Eb|------------------------------------------------------------------------

Gb|-----------------------------------10-10-9-10-10-10-10-10-10---------
Db|---------------------------------------------------------------------
Ab|---------------------------------------------------------------------
Eb|--3-3-3-3-3-3-3-3-3-3-3-3-3-3-3--------------------------------------

Gb|--5-5-4-5-5-5-5-5------4-5-5-5-6-6-7-7-5-5-3-0-----------------------
Db|-------------------5-5-----------------------------------------------
Ab|-----------------------------------------------1-0-------------------
Eb|---------------------------------------------------------------------


Gb|---------------------------------------------------------------------
Db|---------------------------------------------------------------------
Ab|-------------------------------------3--3-3-3-3--3--3-3-3-3-3-3-3---3
Eb|--3--3-3-3-3---3--3-3-3-3-3-3-3---3----------------------------------

Gb|-------------------------------------|-------------------------------
Db|--3----------------------------------|----------5---5---5---------(5)
Ab|------------------3------------------|-------------------------------
Eb|----------------------------------3--|---(3)-------------------------



Get this song at amazon.com      Ebay     Ringtones Ringtones  


Learn to play: Songwriting, Piano, Harmonica, Guitar
Also available at Muzikum: Guns 'N' Roses - Paradise City lyrics

Related Guns N Roses Bass Tabs

Aint It Fun bass
Back Off Bitch bass
Hair Of The Dog bass
New Rose bass
Knockin On Heavens Door (standard Tunin) bass
Garden Of Eden bass
Sweet Childo'mine bass
Sweet Child O Mine Solo Played On Bass bass
Don't Cry bass
So Fine bass
Chinese Democracy bass
Bad Apples bass
Patience (live) bass
Live And Let Die bass
Rocket Queen bass
Raw Power bass
Estranged bass
Think About You bass
Knockin On Heavens Door bass
Dont Cry bass


Guitar Tabs









All tabs are property and copyright of their owners. All tabs provided for educational purposes only. Privacy Policy, DMCA