Guns N Roses

Paradise City Solo Tabs



More from Guns N Roses

Guns N Roses Tabs
Guns N Roses Chords
Guns N Roses Bass
Guns N Roses Lyrics

Gtr I (Eb Ab Db Gb Bb Eb) -
Gtr II (Eb Ab Db Gb Bb Eb) -
Q=208
4/4
Gtr I
Q E E Q E E E E E E E Q. Q E E Q E E E E E E E Q. Q E E E E
|-------------------------------------------------------------------------|
|-------------------------------------------------------------------------|
|-------------------------3b3.5-5--3-4-5--3-4-5-3-5-3-5b5.5-3-------------|
|-5--3-4-5--3-4-5-3-5-3-5--------------------------------------3--1-2-3-1-|
|-------------------------------------------------------------------------|
|-------------------------------------------------------------------------|
E E Q E E E E E E +E +E E E Q E E E E E E Q E E Q E E Q E E E E E
|----------------------------------------------------------------------------------|
|---------------------------------------------------3b3.5--------------------------|
|---3s5-3-4-5-3-5-3-(3)b4-(3)-------3---5-3b3.5-----3b3.5--------------------------|
|-3---------------------------5-3-5---5---------5-3--------5-3-5--3-4-5--3-4-5-3-5-|
|----------------------------------------------------------------------------------|
|----------------------------------------------------------------------------------|
E E Q. Q E E Q E E E E E E Q Q Q E E E E E E Q E E E E E E
|-----------------------------------------------------------------------|
|-----------------------------------------------------------------------|
|-----3b3.5---5--3-4-5--3-4-5-3-5-3-5b7--3--------------3s5-3-4-5-3-5-3-|
|-3-5--------------------------------------3--1-2-3-1-3-----------------|
|-----------------------------------------------------------------------|
|-----------------------------------------------------------------------|
+E +E E E Q E E E E E E Q E E Q E E E E E Q Q E Q. Q +E E Q.
|-------------------------------------------------------------------------------------|
|----------------------------------3b3.5-----------------------6--6-6--5b7r=(5)p3-5---|
|-(3)b4-(3)--------3---5-3b3.5-----3b3.5-------------------------------5b7r=(5)p3-5---|
|-----------5-3-5----5---------5-3--------5-3-5--x-x-3-5---x-5-5--5-5-----------------|
|-------------------------------------------------------------------------------------|
|-------------------------------------------------------------------------------------|
E
~
E E E E E H H. E E +H. E E +E +E E E Q E E E E E E Q
|-----------------------------------------------------------------------------|
|-3-5-3-5-3-5-6-------x-5-(5)------x-3-(3)---(3)--------3---------------3b3.5-|
|-3-5-3-5-3-5-5-------x-5-(5)------x-3-(3)b4-(3)--------3---5-3b3.5-----3b3.5-|
|------------------------------------------------5-3-5----5---------5-3-------|
|-----------------------------------------------------------------------------|
|-----------------------------------------------------------------------------|
|---3---|
Q E E E H. Q Q Q. E +Q Q Q E E E E
|---------------------------------------------------------------------------------|
|--------------15b18------15b18--15b18--15b18---15b18--(15)-15--14-13----13-15----|
|-----------12--------------------------------------------------------15----------|
|----/13-14-----------------------------------------------------------------------|
|---------------------------------------------------------------------------------|
|---------------------------------------------------------------------------------|
|--3--| |--3--|
S S S S E S S S E E E E E E E E E E E S S S E E S S E E S S E S S
|-----------------------------------------------------15-------15-------------15-------------15-------------15------|
|-13-15-13s11-13-11-13s11-10-11-10-11-10----10-----15----18b20----18-15-18b20----18-15-18b20----18-15-18b20----15---|
|----------------------------------------12----/16------------------------------------------------------------------|
|-------------------------------------------------------------------------------------------------------------------|
|-------------------------------------------------------------------------------------------------------------------|
|-------------------------------------------------------------------------------------------------------------------|
E S S E S S E S S E S S a +H +H
|-------15----------15----------15----------15----18b20-(18)b22----(18)----|
|-18b20----15-18b20----15-18b20----15-18b20----15---------------------------|
|---------------------------------------------------------------------------|
|---------------------------------------------------------------------------|
|---------------------------------------------------------------------------|
|---------------------------------------------------------------------------|
|-3-|
E E E 16x
||--3------||----|
||o---6-3-o||----|
||---------||----|
||---------||----|
||o-------o||----|
||---------||----|
E E S S S S S S S S S S S S S S S S S S E +H Q E E H
|-3-6-5-6-5-3---3-----3-----3---------------------------------------|
|-------------6---5-6---5-6---6-3-5-6-5-3---------------------------|
|-----------------------------------------5b7r(5)----3b3.5----------|
|----------------------------------------------------------5-3-5----|
|-------------------------------------------------------------------|
|-------------------------------------------------------------------|
E E E E E E E E Q E E +E E E E E +Q E E E E E E E E E E E E E Q
|---------------------------------------------------------------------------------|
|---------------------------------------------------------------------------------|
|-------------------------------------------------------------------------3b3.5---|
|-------------------------------------------------------------3---5-3-------------|
|-5-4-3s1-3-1----------------------1---3b5r(3)--1-3-1-1-2-3s5---5-----5-3---------|
|-------------3-1-1b1.5--3-3-(3)-3---3--------------------------------------------|
E E +E E E Q E E +E E E Q E E +E E E E E E E E E E E E E E E +H
|--------------------------------------------------3-----------------------------------|
|---------3---3----------3---3----------3--------3-------3-----3-----3-----3-5b7r(5)---|
|---------3---3----------3---3----------3----5b7-----5b7---5b7---5b7---5b7---5b7r(5)---|
|-5-5-(5)---5----5-5-(5)---5----5-5-(5)---5--------------------------------------------|
|--------------------------------------------------------------------------------------|
|--------------------------------------------------------------------------------------|
Gtr II
|-3-|
E E E E E +Q +E E E E +E +H E E E E +E E E +E E E E E E E E E +E E E
|-----3-------------------3---------------------3-----------3---------3-6-----6-3---8b10r(8)-6----|
|-------5-3-5b7r(5)b7-(5)---5-5b7==(5)-(5)----5---5-----------6b8r(6)-----6s8-----6------------8--|
|-5b7-------5b7r(5)b7-(5)-----5b7==(5)-(5)----------5b7-(5)---------------------------------------|
|-------------------------------------------------------------------------------------------------|
|-------------------------------------------------------------------------------------------------|
|-------------------------------------------------------------------------------------------------|
~ ~
|-3-|
E E E E Q +E E E E E E E E +E E E E E Q E E Q E E E Q E
|-8-6-----10b12r=(10)-9-8-------8-9-10---------------------------------------------10-|
|-----8-6-----------------10b12--------10b11r(10)-8---10---8-10-8-8--10-8-8-10b12-----|
|---------------------------------------------------9----9----------------------------|
|-------------------------------------------------------------------------------------|
|-------------------------------------------------------------------------------------|
|-------------------------------------------------------------------------------------|
E E Q
||----------||-|
||o-10---8-o||-|
||-----9----||-|Repeat 4 times
||----------||-|
||o--------o||-|
||----------||-|
|-3--| |--3--| |--3--| |--3--| |--3--| |--3--| |--3--|
E E E E +E E E E E E E E S S S S E E E E E E E E E E E E E E E E E E
|------------------------------------------------------------------------10-12----10-12-13s15-12-13-15s17-13--|
|-10-8-10-10b11r(10)-11-10-8-10----8-------10-11-10----10-11-13-10-11-13-------13-----------------------------|
|-------------------------------10---10b12----------12--------------------------------------------------------|
|-------------------------------------------------------------------------------------------------------------|
|-------------------------------------------------------------------------------------------------------------|
|-------------------------------------------------------------------------------------------------------------|
|--3--|
E E E a E S S E E E S S E E S S E E S S S S E Q. Q Q
|-15-17-13-17s19-15-18-15-------15----------------------------------------18-----------------|
|-------------------------18b20----15-18-15----15-18-15----15-18-15-------17----17b18--14----|
|-------------------------------------------18----------15----------18-15--------------------|
|--------------------------------------------------------------------------------------------|
|--------------------------------------------------------------------------------------------|
|--------------------------------------------------------------------------------------------|
|------3-------|
E E E E E E S S S S S S S S S S S S S S S S S S S S S E E S S S S S S
|-------------------12-13-15-13-12----13-12-------12----------------------------10---------------------|
|----------12-13-14----------------15-------15-13----15-13-12-15-13-12s11-10-12----10s8-11-10-8s6-10-8-|
|-12-14-15---------------------------------------------------------------------------------------------|
|------------------------------------------------------------------------------------------------------|
|------------------------------------------------------------------------------------------------------|
|------------------------------------------------------------------------------------------------------|
|-----------3-----------| |-5:2-|
S S S S S S S S S S E E S S E E E E E E E Q E E E E E E E E E E E E
|---------------------------------------------------------------------------------------|
|-6s5-8-6-5s3-6-5-3s1-------------------------------------------------------------------|
|---------------------5b5.5-3-6-5-3-5-3----5-5---5--------------------------------------|
|----------------------------------------------8----------------------15-16-17-15-16-17-|
|---------------------------------------/7----------15-16-17-15-16-17-------------------|
|---------------------------------------------------------------------------------------|
5:2| |--3--| |--3--| |-------3-------|
E E S S S S E E E E E E S S S S E E H Q E E E E E E E E E
|----------------------------------------------------------------------------------------|
|----------------------------15-16-17----------15s18-20-18b20----------------------------|
|-15-16-17----------15-16-17----------15-16-17-------------------------------------------|
|----------15-16-17----------------------------------------------------------------------|
|----------------------------------------------------------------x----------------------|
|----------------------------------------------------------------------1-2-3-1-2-3-1-2-3-|
|-------------------3-------------------| |------------3------------|
E E E E E E E E E E E E E E E E E E E E E E E E E E E E E E E E E E E
|-----------------------------------------------------------------------|
|-----------------------------------------------------------------------|
|-----------------------------------------------------------------------|
|-------------------------------------------3-4-5-3-4-5-3-4-5-3-4-5-3-4-|
|-----------------------------------------------------------------------|
|-1-2-3-1-2-3-1-2-3-1-2-3-1-2-3-1-2-3-1-2-3-----------------------------|
|-----3-----| |3-| |-3-|
E E E E E E E E E +Q Q +Q +Q E E E E Q +H. +Q
|-------------------------------------------------------------------|
|-------------------------------------------------------------------|
|------------------------3b5--(3)--(3)-5-5-3---5--(5)b7------(5)----|
|-5-3-4-5-3-4-5-3-5-(5)----------------------5----------------------|
|-------------------------------------------------------------------|
|-------------------------------------------------------------------|
~~~~~~~~
a +E E E E H W E +E E E E +E E E E E E E +Q E E E E
|----------------------------------------------------------------------------------------------------|
|-----------------------------------------12-15---------------------------------------12-15-------13-|
|-5b7r(5)-3-5---3----12--------14b16-(14)-------14b16r(14)-12----14----12-14b16-(14)--------14b16----|
|-------------5-----------------------------------------------14----14-------------------------------|
|----------------------------------------------------------------------------------------------------|
|----------------------------------------------------------------------------------------------------|
|--3--| |--3--| |---3----|
E E E E E E E E E E E E E E E E S S E E S S E S S S S E E E E E E E
|--------------------------------------------------------------------------------------------------------------------------------|
|-15-------13-15-------13-15-------13-15-------13-15-13----13-15-13-------13-15-13-------13-15-13-------13-15-13-------13-15-13--|
|----14b16-------14b16-------14b16-------14b16----------15----------15b17----------15b17----------15b17----------15b17-----------|
|--------------------------------------------------------------------------------------------------------------------------------|
|--------------------------------------------------------------------------------------------------------------------------------|
|--------------------------------------------------------------------------------------------------------------------------------|
S S S S E E S S E S S E E S S S S E E S S S S E E E E +E S S E E E S S
|------------------------------------------------------------------------------------------------------------------|
|-------13-15-13----13-15-13----13-15-13----13-15-13----13-15-13----13-15-13----13-15b17-(15)-13-15-13s12-13-12-13-|
|-15b17----------15----------15----------15----------15----------15----------15------------------------------------|
|------------------------------------------------------------------------------------------------------------------|
|------------------------------------------------------------------------------------------------------------------|
|------------------------------------------------------------------------------------------------------------------|
Q=104
|--3--| |--3--| |--3--| |----5-----| |------5-------| |-----5-----| |--3--| |-3-|
E E E E +E E E E E E E +Q +Q. S S S S S S S S S +S S S S S S S S +E E E E E
|------------------------------------------------------------------------------------------------------------------------|
|------------------------------------------------------------------------------------------------------------------------|
|-12----12---------------------------------------------------------------------------------------------------------------|
|----14----14b16r(14)-12----14-12---------------------11-10s11s10-8----10----8b10-(8)----8b9-----------------------------|
|------------------------14-------14-12b14-(12)r(12)----------------10----10----------10-----10-8------------------------|
|-------------------------------------------------------------------------------------------------10-9-8b10r(8)-6-8-6-7--|
Q H +H +W a Q
|-----------------------------------------|
|-----------------------------------------|
|-----------------------------------------|
|------8b10----(8)----(8)-----------------|
|-/10----------------------------8s10----|
|-----------------------------------------|
--------------------------------------------------------------------------------
Duration Legend
---------------
W - whole; H - half; Q - quarter; E - 8th; S - 16th; T - 32nd; X - 64th; a - acciaccatura
+ - note tied to previous; . - note dotted; .. - note double dotted
Uncapitalized letters represent notes that are staccato (1/2 duration)
Irregular groupings are notated above the duration line
Duration letters will always appear directly above the note/fret number it represents the
duration for. Duration letters with no fret number below them represent rests. Multi-
bar rests are notated in the form Wxn, where n is the number of bars to rest for. Low
melody durations appear below the staff
Tablature Legend
----------------
h - hammer-on
p - pull-off
b - bend
pb - pre-bend
r - bend release (if no number after the r, then release immediately)
/ - slide into or out of (from/to "nowhere")
s - legato slide
S - shift slide
- natural harmonic
[n] - artificial harmonic
n(n) - tapped harmonic
~ - vibrato
tr - trill
T - tap
TP - trem. picking
PM - palm muting

/ - tremolo bar dip; n = amount to dip

- tremolo bar down
n/ - tremolo bar up
/n - tremolo bar inverted dip
= - hold bend; also acts as connecting device for hammers/pulls
- volume swell (louder/softer)
x - on rhythm slash represents muted slash
o - on rhythm slash represents single note slash
Misc Legend
-----------
| - bar
|| - double bar
||o - repeat start
o|| - repeat end
*| - double bar (ending)
: - bar (freetime)
$ - Segno
& - Coda
Tempo markers - = BPM(8/16=s8/s16), where s8 = swing 8ths, s16 = swing 16ths



Get this song at amazon.com      Ebay     Ringtones Ringtones  


Learn to play: Songwriting, Piano, Harmonica, Guitar
More Guns 'N' Roses lyrics available at Muzikum

Related Guns N Roses Tabs

Used To Love Her (Acoustic) tabs
Breakdown tabs
Shotgun Blues tabs
Estranged tabs
Whole Lotta Rosie tabs
Dust N Bones tabs
Patience 2001 Intro tabs
Attitude tabs
Get In The Ring tabs
Heartbreak Hotel tabs
Better tabs
Sweet Child O Mine Solo tabs
Mama Kin tabs
Sekac tabs
Aint It Fun tabs
Rocket Queen tabs
You Aint The First tabs
Blues tabs
Welcome To The Jungle (baby) tabs
Big Bad Billy tabs


Guitar Tabs









All tabs are property and copyright of their owners. All tabs provided for educational purposes only. Privacy Policy, DMCA