Guns N Roses

Paradise City Guitar Tabs



More from Guns N Roses

Guns N Roses Tabs
Guns N Roses Chords
Guns N Roses Bass
Guns N Roses Lyrics




first is G chord shape(for normal tuning anyway). it sound like hes playing
the chord then seperate notes, but this works just as well.

G:
(Play high notes after first strum)
Eb|---3---
Bb|---3---
Gb|---0---
Db|---0---
Ab|---2---
Eb|---3--- x10

Eb|---3---
Bb|---3---
Gb|---0---
Db|---2---
Ab|---3---
Eb|---0--- x10

Eb|---3---
Bb|---3---
Gb|---2---
Db|---3---
Ab|---0---
Eb|---0--- x4

Eb|---3---
Bb|---3---
Gb|---0---
Db|---2---
Ab|---3---
Eb|---0--- x4

Eb|---3---
Bb|---3---
Gb|---0---
Db|---0---
Ab|---2---
Eb|---3--- x4
Repeat all this 4 times

Eb|-----------------------------
Bb|-----------------------------
Gb|----------5----------5-------
Db|---5------5------3---5---5---
Ab|---5------3------3---3---5---
Eb|---3-------------1-------3--- x 2 (rythm guitarist x4)

Solo:

Eb|-----------------------------------------------------------------------------------
Bb|------------------------------15-------------------------------------------------15
Gb|-------------12-12^-----------------14^---12-----------------12-12^----------------
Db|---12---14-----------14---12------------------14---12---14----------14---12--------
Ab|-----------------------------------------------------------------------------------
Eb|-----------------------------------------------------------------------------------

Eb|-----------------------------------------------------------------------------------
Bb|----------------------15^---15^---13^---13^---12-----------------------------------
Gb|---14^---12----------------------------------------12---14---12^-------------------
Db|----------------14-----------------------------------------------------------------
Ab|-----------------------------------------------------------------------------------
Eb|-----------------------------------------------------------------------------------

Eb|-----------------------------------------------------------------------------------
Bb|------------------------------15-------------------------------------------------15
Gb|-------------12-12^-----------------14^---12-----------------12-12^----------------
Db|---12---14-----------14---12------------------14---12---14----------14---12--------
Ab|-----------------------------------------------------------------------------------
Eb|-----------------------------------------------------------------------------------

Eb|----------------------------15^----------------------------------------------------
Bb|-----------------------------------------------------------------------------------
Gb|---14---12----------17^-17^-----17-16-17^------------------------------------------
Db|-------------14--------------------------------------------------------------------
Ab|-----------------------------------------------------------------------------------
Eb|-----------------------------------------------------------------------------------

Eb|---------------------------
Bb|---------------------------
Gb|---------------------------
Db|---------------------------
Ab|-----------------------1---
Eb|---3-1-2-3-1-2-3-1-2-3----- x 3

Eb|------------------------------------------------
Bb|------------------------------------------------
Gb|------------------------------------------------
Db|------------------------------------------------
Ab|---------------3^---5-4-3-1-3-1-----------------
Eb|---3-1-2-3-1-2-------------------3-3^-----------


Eb|---------------------------
Bb|---------------------------
Gb|---------------------------
Db|---------------------------
Ab|-----------------------1---
Eb|---3-1-2-3-1-2-3-1-2-3----- x 3

Eb|------------------------------------------------
Bb|------------------------------------------------
Gb|------------------------------------------------
Db|------------------------------------------------
Ab|---------------3^---5-4-3-1-3-1-----------------
Eb|---3-1-2-3-1-2-------------------3-3^-----------

Eb|-----------------------------
Bb|-----------------------------
Gb|----------5----------5-------
Db|---5------5------3---5---5---
Ab|---5------3------3---3---5---
Eb|---3-------------1-------3--- x 2

Eb|---------------------------
Bb|---------------------------
Gb|---------------------------
Db|---------------------------
Ab|-----------------------1---
Eb|---3-1-2-3-1-2-3-1-2-3----- x 6

Eb|------------------------------------------------
Bb|------------------------------------------------
Gb|------------------------------------------------
Db|------------------------------------------------
Ab|---------------3^---5-4-3-1-3-1-----------------
Eb|---3-1-2-3-1-2-------------------3-3^-----------

Eb|-----------------------------
Bb|-----------------------------
Gb|----------5----------5-------
Db|---5------5------3---5---5---
Ab|---5------3------3---3---5---
Eb|---3-------------1-------3--- x 2


(rythm)
Eb|---------------------------
Bb|---------------------------
Gb|---------------------------
Db|---------------------------
Ab|-----------------------1---
Eb|---3-1-2-3-1-2-3-1-2-3----- x 3

*doesn't know the rest* *is learning 2 min solo next week*



Get this song at amazon.com      Ebay     Ringtones Ringtones  


Learn to play: Songwriting, Piano, Harmonica, Guitar
More Guns 'N' Roses lyrics available at Muzikum

Related Guns N Roses Tabs

Paridise City tabs
Oh My God Solo tabs
Look At Your Game Girl tabs
Rocket Queen tabs
Coversongs Collection tabs
Mr Brownstone tabs
Patience 2001 Intro tabs
Since I Dont Have You tabs
Sekac tabs
Paridice City tabs
Oh My God Bass tabs
Anything Goes tabs
Live Tabs tabs
Yeasterdays tabs
Patience (lots Of Versions) tabs
Its So Easy tabs
Gnr Lies Album tabs
Nice Boys tabs
Bad Apples tabs
Whole Lotta Rosies tabs


Guitar Tabs









All tabs are property and copyright of their owners. All tabs provided for educational purposes only. Privacy Policy, DMCA