Guns N Roses

Paradice City Tabs



More from Guns N Roses

Guns N Roses Tabs
Guns N Roses Chords
Guns N Roses Bass
Guns N Roses Lyrics



Rhy. Fig. 1:
G C
|-3---3-----3-----3-------|---------3-----3-----3-------|
|-0-----0-----0-----0---0-|-1---------1-----1-----1---1-|
|-0-------0-----0-----0---|-0-----------0-----0-----0---|
|-0-----------------------|-0h2---2---------------------|
|-2-----------------------|-----3-----------------------|
|-3-----------------------|-----------------------------|



Fadd9 C G
|--------3----------------3-------|---3----3-------------------|
|--1---1---1---1--1-----1---1---0-|-0--0-----0-----0---0-------|
|--0h2-------2----0-----------0---|-0----0-----0h2---0------0--|
|--0h3------------0h2-------------|-0--------------------0h2---|
|---------------------3-----------|-2--------------------------|
|---------------------------------|-3--------------------------|



Rhy. Fig. 2: P.M.--| P.M.---|
|-------------------------|----------------------------|
|-------------------------|-5--------------------------|
|---------------------5-5-|-5--------------------10-10-|
|-5-------------------5-5-|-5--------------------10-10-|
|-5-------------------3-3-|-3---------------------8--8-|
|-3-----------------------|----------------------------|



P.M.--| P.M.--|
|---------------------------------|----------------------------|
|-10-----------------5------------|----------------------------|
|-10-------------5-5-5------------|----------------------------|
|-10-------------5-5-5------------|-5--------------------------|
|--8-------------3-3-3------------|-5--------------------------|
|-----------------------------3-3-|-3--------------------------|



Riff B
|--------------------------------------------|---------------------|
|----------------------15--------------------|---------------------|
|-------12-12--------------14fb-14fbr--12----|-----------%---------|
|-12h14---------14-12---------------------14-|---------------------|
|--------------------------------------------|---------------------|
|--------------------------------------------|---------------------|



Riff B-1
|--------------------------------------------|---------------------|
|-13fb-----13fb-----13-----10fbr------8------|-10~~~~~-------------|
|-----------------------------------------9--|---------------------|
|--------------------------------------------|---------------------|
|--------------------------------------------|---------------------|
|--------------------------------------------|---------------------|



Riff B-2 /--Hold Bend--
|-------------|----15---------|--------------|---------------------|
|-13-------13fb--------13-----r------12h13---|-12~~~~~-------------|
|--------------------------------------------|---------------------|
|--------------------------------------------|---------------------|
|--------------------------------------------|---------------------|
|--------------------------------------------|---------------------|



Riff C
P.M.------------------------------------|
|--------------------------------------------|
|--------------------------------------------|
|---------------------------------------3----|
|------------------------------------5--3----|
|-5~--3---4--5~--3---4--5---3--5--3--5--1----|
|-3~--1---2--3~--1---2--3---1--3--1--3-------|



P.M.-----------------------------------|
|--------------------------------------------|
|--------------------------------------------|
|------------------------------------5--3----|
|------------------------------------3--3----|
|-5~--3---4--5~--3---4--5---3--5--3--3--1----|
|-3~--1---2--3~--1---2--3---1--3--1----------|



P.M.-----------------------------------|
|--------------------------------------------|
|--------------------------------------------|
|---------------------------------------3----|
|------------------------------------5--3----|
|-5~--3---4--5~--3---4--5---3--5--3--5--1----|
|-3~--1---2--3~--1---2--3---1--3--1--3-------|



P.M.----------------------------------|
|--------------------------------------------|
|--------------------------------------------|
|-----------------------------------5---3----|
|--------------------------5---3----3---3----|
|-5~--3---4--5~---3---4----5---3----3---1----|
|-3~--1---2--3~---1---2----3---1-------------|



Rhy. Fig. 3 (w/ partial 1st verse for timing)



P.M.--------------------------------------|
|-----------------------------------------------------|
|--------------------------------------------------3--|
|--------------------------------------------------3--|
|--------------------------------------------------3--|
|--------------------------------------------------1--|
|-3~---1---2---3---3---1---2---3---1---3---1---3------|
1. Just... I'm...



P.M.-----------------------------|
|---------------------------------------------------|
|----------------------------------------5----3-----|
|----------------------------------------5----3-----|
|----------------------------------------5----3-----|
|----------------------------------------3----1-----|
|-3~---1---2--3--3--1--2--3--1--3---1---------------|
hard... I'm your...



P.M.---------------------------------------|
|-----------------------------------------------------|
|--------------------------------------------------3--|
|--------------------------------------------------3--|
|--------------------------------------------------3--|
|--------------------------------------------------1--|
|-3~---1---2---3---3---1---2---3---1---3---1---3------|
charity... eat.



P.M.-----|
|------------------------------------|--------------|
|--------------------------3---------|--------5-----|
|--------------------------3---------|--------5-----|
|--------------------------3---------|--------5-----|
|--------------------------1---------|--------3-----|
|-3~--------1---2---3----------------|--------------|
pay you.... another... time.



|-----------------------------------------------------|
|-----------------------------------------------------|
|-----------------------------------------------------|
|-----------------------------------------------------|
|--3hb--------1---3---1-------------------------------|
|-------------------------1---3----------(3)/---------|
Take... the... line.



O.K.
So the song goes like this:



(Rhy. Fig. 1) x 2



(Chorus w/Rhy. Fig. 1) x 2
Take me down to the paradise city,
where the grass is green and the girls are pretty.
Oh won't you please take me home.



(Rhy. Fig. 2) x 2



[(Riff B then Riff B-1) w/Rhy. Fig. 2]
[(Riff B then Riff B-2) w/Rhy. Fig. 2]



(Riff C)



(Verse 1 w/Rhy. Fig. 3)
Just an urchin livin' under the street.
I'm a ... hard case that's tough to beat.
I'm your charity case, so buy me something to eat.
I'll pay you at another time.



(Riff C)



(Verse 2 w/Rhy. Fig. 3)



(Chorus w/Rhy. Fig. 1) x 2



(Solo) not included



Then comes this....



|--------10-----------10-------10-----------10------8----|
|--------------------------------------------------------|
|--10h11----12--10h11----10h11----12--10h11----8h9-------|
|--------------------------------------------------------|
|--------------------------------------------------------|
|--------------------------------------------------------|
So far a - way.


Get this song at amazon.com      Ebay     Ringtones Ringtones  


Learn to play: Songwriting, Piano, Harmonica, Guitar
More Guns 'N' Roses lyrics available at Muzikum

Related Guns N Roses Tabs

Patience Solo tabs
Civil War Solo tabs
Oh My God tabs
Only Woman Bleed tabs
Talkin Double Jive tabs
Gnr Lies tabs
Used To Love Her tabs
Wild Horses tabs
Chi tabs
Paradise City(entire Song) tabs
Gnr Lies Album tabs
I Dont Care About You tabs
Move To The City tabs
Live And Let Die (greatest Hits) tabs
My Michelle tabs
Its So Easy tabs
Civial War tabs
Slash Licks tabs
Use Your Illusion tabs
Its Alright tabs


Guitar Tabs









All tabs are property and copyright of their owners. All tabs provided for educational purposes only. Privacy Policy, DMCA