Guns N Roses

Paradice City Bass Tabs



More from Guns N Roses

Guns N Roses Tabs
Guns N Roses Chords
Guns N Roses Bass
Guns N Roses Lyrics



g|--------------------------------------------|
d|----------3---------------------------------|
a|------3------3------------------------------|x1verse
e|--3-------------3-------333-----------------|

g|---------------------------------------------|
d|------------3--------------------------------|x1
a|-------3------3----10------101010------------|
e|---3-----------------------------------------|

g|---------------------------------------------|
d|---------------------------------------------|x2chrous
a|----------------------31---------------------|
e|---312--312--312-----------------------------|



Get this song at amazon.com      Ebay     Ringtones Ringtones  


Learn to play: Songwriting, Piano, Harmonica, Guitar
More Guns 'N' Roses lyrics available at Muzikum

Related Guns N Roses Bass Tabs

Youre Crazy bass
Outta Get Me bass
Prefect Crime bass
Perfect Crime bass
Big Dumb Sex bass
Paradise City (standard Tuning) bass
Civil War bass
Sweet Childo'mine bass
Pretty Tied Up bass
Don' Cry bass
Don't Cry bass
Right Next Door To Hell bass
Dust N Bones bass
Shot Gun Blues bass
Word Up bass
Don't Cry (standard Tuning) bass
Paradice City bass
Down On The Farm bass
Locomotive bass
Locamotive bass


Guitar Tabs









All tabs are property and copyright of their owners. All tabs provided for educational purposes only. Privacy Policy, DMCA

Online converter - videoconverter.com