Guns N Roses

Paitince Tabs



More from Guns N Roses

Guns N Roses Tabs
Guns N Roses Chords
Guns N Roses Bass
Guns N Roses Lyrics




Intro chords
C G A D C G A D
C G C Em C G D D

Little intro solo:
C G
|-----|------------10----------7---|-----7-8-9-10--------
|-----|-8~~--10s12---—10s12s10---8-|-10b----------10br-8-
|-7h9-|----------------------------|---------------------
|-----|----------------------------|---------------------
|-----|----------------------------|---------------------
|-----|----------------------------|---------------------

A D
------|------7s8s9-----|-----10-----8-----7----7s5------|
-10p8-|-10-------------|--------------------------------|
------|------7s8s9-----|--11------9-----7----7-7s5------|
------|----------------|--------------------------------|
------|----------------|--------------------------------|
------|----------------|--------------------------------|

Verse 1:
C
Shed a tear cause I\'m missing you
G
I\'m still allright to smile
A D
Girl I think about you every day now

C
Was a time when I wasn\'t sure
G
But you set my mind at ease
A D
There is no doubt, you\'re in my heart now

Chorus:
C G
Sad woman take it slow
C Em
It will work itself out fine
C G D
All we need is just a little patience

C G
Sad sugar make it slow and
C Em
We’ll comes together fine
C G D
All we need is just a little patience

Verse 2:
Sit here on the stairs
Cause I\'d rather be alone
If I can\'t have you right now
I\'ll wait here (bull***)

Sometimes I get so candescent
But I can\'t speed up the time
You know love, there\'s one more thing
To consider

Chorus 2:
Sad woman take it slow
And things will be just fine
You and I just use a little patience

Sad sugar take the time
Cause the lights are shining bright
You and I got what it takes to make it

D
We don\'t fake it
D
Ahh and never break it
D
Cause I can\'t take it

solo:
C G C Em
|-8p7-|-8--8s10-8-|----------------8p7-|-8—-8s10-10s-12--8p7-|
|-----|-----------|-10s12s10-8-8-------|------------|--------|
|-----|-----------|--------------------|------------|--------|
|-----|-----------|--------------------|------------|--------|
|-----|-----------|--------------------|------------|--------|
|-----|-----------|--------------------|------------|--------|

C G D Dadd9
|-8--8s10-8-|--------------|-10s12-10-10—|-12s14-12-10h12-10-|
|-----------|-10s12-10-8-8-|-------------|-------------------|
|-----------|--------------|-------------|-------------------|
|-----------|--------------|-------------|-------------------|
|-----------|--------------|-------------|-------------------|
|-----------|--------------|-------------|-------------------|

C G C Em
|---------------|-------------|-------------|------------------------|
|---5-8---------|-------------|---5-8-------|--8-10fbr(10)p8----8-10-|
|-7fb--r(7)-5-7-|---4-7-------|-7fb--r(7)--7s9---------------9-------|
|---------------|-7fb--r(7)-5-|-------------|------------------------|
|---------------|-------------|-------------|------------------------|
|---------------|-------------|-------------|------------------------|

C G D
|------------------|------------------|-------------|
|-10fbr-8h10-8---8-|-10fbr-8h10-8---8-|-10s12-10-10-|
|--------------9---|--------------9---|-------------|
|------------------|------------------|-------------|
|------------------|------------------|-------------|
|------------------|------------------|-------------|

D D D
|--------------------|-2hb-2--------------|-2hb-2-0-2--3-2-0-2-|
|-3s5-3--------------|--------------------|------------3-3-3-3-|
|--------4p2-----2---|--------4p2-----2---|------------2-2-2-2-|
|------------3h4---0-|------------3h4---0-|------------------0-|
|--------------------|--------------------|--------------------|
|--------------------|--------------------|--------------------|


D G
A little patience
D G
Mhh Yeah

verse 3:
D
I\'ve been walking the streets tonight
G
Just trying to get it right
D
It\'s hard to see with so many around
G
Noone doesn\'t like my stucking the ground
D
And the streets don\'t change but maybe the name
G
I ain\'t got time for the game
D
Cause I need you
G
Yeah Yeah cause I need you
F
Ooh I need you
D
Woah I need you
D
Ooooohh this time

end with
3p2-------------|2---------------|
----3-----------|3---------------|
------2---------|2---------------|
--------5p4-0---|0---------------|
----------------|----------------|
----------------|----------------|



Get this song at amazon.com      Ebay     Ringtones Ringtones  


Learn to play: Songwriting, Piano, Harmonica, Guitar
More Guns 'N' Roses lyrics available at Muzikum

Related Guns N Roses Tabs

You Aint The First tabs
Always On The Run tabs
I Used To Love Her tabs
Welcome To The Jungle tabs
Sweet Child O Mine 1000% Perfect tabs
My Michelle tabs
New Rose tabs
Reckless Life tabs
Rocket Queen tabs
Use Your Illusion 2 Album tabs
Dead Horse tabs
Bad Obsession tabs
Chinese Democracy Intro tabs
Knockin On Heavens Door tabs
Sekac tabs
Salt Of The Earth tabs
Ain't Fun tabs
G N' R Lies (album) tabs
Down On The Farm tabs
Anything Goes tabs


Guitar Tabs









All tabs are property and copyright of their owners. All tabs provided for educational purposes only. Privacy Policy, DMCA