Guns N Roses

Out Ta Get Me Bass Tabs



More from Guns N Roses

Guns N Roses Tabs
Guns N Roses Chords
Guns N Roses Bass
Guns N Roses Lyrics



F#||------------------|------------------|------------------|
C#||------------------|------------------|------------------|
G#||------------------|------------------|------------------|
D#||------------------|------------------|------------------|

4x
|----------------------||--0--0--0--0--0-----------|-----------------------|
|*--------------------*||-----------------3--0-----|-----------------------|
|*--------------------*||--------------------------|-----------------------|
|-------3--------3-----||-----------------------3--|----3----0--1--3----1--|



-----------------------|------------------------|------------------------|
-----------------------|------------------------|------------------------|
--3------1-------1-----|------------------------|--3----0--1-------------|
--------------3-----3--|----3----0--1--3--3--1--|---------------0--1--3--|



-----------------------|------------------------|--------------------------|
-----------------------|------------------------|--------------------------|
-----------------------|--3----0--1-------1-----|--------------------------|
----3----0--1--3----1--|---------------3-----3--|----3--3--0-0-1--3--3--1--|



------------------------|-------------------------|--------------------------|
------------------------|-------------------------|--------------------------|
--3-------1-------------|-------------------------|--3--3--3--1--1-----------|
-------3-------0--1--3--|----3--3--3--3--3--3--1--|-----------------1--2--3--|



-------------------------|--------------------------|--------------------------|
-------------------------|--------------------------|--------------------------|
-------------------------|--------------------------|--------------------------|
----3--3--3--3--3--3--3--|--3--3--0--0--1--1--2--2--|--3--3--3--3--3--3--3--1--|



--------------------------|--------------------------|-----------------------|
--------------------------|--------------------------|-----------------------|
--3--3--3--1--1-----------|--------------------------|--3----0--2----3----4--|
-----------------1--1--1--|--3--3--3--3--3--3--3--1--|-----------------------|



--------------------------|--------------------------|
--0--0--0--0--0--0--0--0--|--0--0--0--0--0--0--0-----|
--------------------------|-----------------------0--|
--------------------------|--------------------------|



--------------------------|--------------------------|
--------------------------|--------------------------|
--3--3-3-3----3--3-3-3----|--3--3-3-3----3--3-3-3----|
--------------------------|--------------------------|



--------------------------|--------------------------|
--0--0--0--0--0--0--0--0--|--0--0--0--0--0--0--0-----|
--------------------------|-----------------------0--|
--------------------------|--------------------------|



--------------------------|--------------------------|
--------------------------|--------------------------|
--3--3-3-3----3--3-3-3----|--3--3-3-3----3--3-3-3----|
--------------------------|--------------------------|



--------------------------|------------------------|--------------------------|
--0--0--0--0--0--0--0--0--|--0--0--0--0----0-------|--------------------------|
--------------------------|---------------------0--|--3--3-3-3----3--3-3-3----|
--------------------------|------------------------|--------------------------|



--------------------------|--------------------------|
--------------------------|--0--0--0--0--0--0--0--0--|
--3--3-3-3----3--3-3-3----|--------------------------|
--------------------------|--------------------------|



--------------------------|--------------------------|
--0--0--0--0--0--0--0-----|--------------------------|
-----------------------0--|--3--3--3--3--3--3--3--3--|
--------------------------|--------------------------|



--3--3--3--3--3-----------|-------------------------|------------------------|
--------------------------|-------------------------|------------------------|
--------------------1-----|-------------------------|--3----0--1-------1-----|
-----------------3-----3--|----3--3--0--1--3--3--1--|---------------3-----3--|



-------------------------|------------------------|-------------------------|
-------------------------|------------------------|-------------------------|
-------------------------|--3----0--1-------------|-------------------------|
----3--3--0--1--3--3--1--|---------------0--1--3--|----3--3--0--1--3--3--1--|



------------------------|-------------------------|------------------------|
------------------------|-------------------------|------------------------|
--3----0--1-------1-----|-------------------------|--3----0--1-------1-----|
---------------3-----3--|----3--3--0--1--3--3--1--|---------------3-----3--|



-------------------------|--------------------------|-------------------------|
-------------------------|--------------------------|-------------------------|
-------------------------|--3--3--3--1--1-----------|-------------------------|
----3--3--3--3--3--3--1--|-----------------1--2--3--|----3--3--3--3--3--3--3--|



--------------------------|--------------------------|
--------------------------|--------------------------|
--------------------------|--------------------------|
--3--3--0--0--1--1--2--2--|--3--3--3--3--3--3--3--1--|



--------------------------|--------------------------|-----------------------|
--------------------------|--------------------------|-----------------------|
--3--3--3--1--1-----------|--------------------------|--3----0--2----3----4--|
-----------------1--1--1--|--3--3--3--3--3--3--3--1--|-----------------------|



--------------------------|--------------------------|
--0--0--0--0--0--0--0--0--|--0--0--0--0--0--0--0-----|
--------------------------|-----------------------0--|
--------------------------|--------------------------|



--------------------------|--------------------------|
--------------------------|--------------------------|
--3--3-3-3----3--3-3-3----|--3--3-3-3----3--3-3-3----|
--------------------------|--------------------------|



--------------------------|--------------------------|
--0--0--0--0--0--0--0--0--|--0--0--0--0--0--0--0-----|
--------------------------|-----------------------0--|
--------------------------|--------------------------|



--------------------------|--------------------------|
--------------------------|--------------------------|
--3--3-3-3----3--3-3-3----|--3--3-3-3----3--3-3-3----|
--------------------------|--------------------------|



--------------------------|------------------------|--------------------------|
--0--0--0--0--0--0--0--0--|--0--0--0--0----0-------|--------------------------|
--------------------------|---------------------0--|--3--3-3-3----3--3-3-3----|
--------------------------|------------------------|--------------------------|



--------------------------|--------------------------|
--------------------------|--0--0--0--0--0--0--0--0--|
--3--3-3-3----3--3-3-3----|--------------------------|
--------------------------|--------------------------|



--------------------------|--------------------------|
--0--0--0--0--0--0--0-----|--------------------------|
-----------------------0--|--3--3--3--3--3--3--3--3--|
--------------------------|--------------------------|



--3--3--3--3--3-----------|-------------------------|------------------------|
--------------------------|-------------------------|------------------------|
--------------------1-----|-------------------------|--3----0--1-------1-----|
-----------------3-----3--|----3--3--0--1--3--3--1--|---------------3-----3--|



-------------------------|------------------------|-------------------------|
-------------------------|------------------------|-------------------------|
-------------------------|--3----0--1-------------|-------------------------|
----3--3--0--1--3--3--1--|---------------0--1--3--|----3--3--0--1--3--3--1--|



------------------------|-------------------------|----------------------|
------------------------|-------------------------|----------------------|
--3----0--1-------1-----|-------------------------|--3------0----1----2--|
---------------3-----3--|----3--3--0--1--3--3--1--|----------------------|



--------------------------|--------------------------|
--------------------------|--------------------------|
--3--3--3--3--3--3--3--3--|--3--3--3--3--3--3--3-----|
--------------------------|-----------------------3--|



--------------------------|--------------------------|
--------------------------|--------------------------|
--------------------------|-----------------1--2--3--|
--3--3--3--3--3--3--1--3--|--3--3--3--3--3-----------|



--------------------------|--------------------------|
--------------------------|--------------------------|
--3--3--3--3--3--3--3--3--|--3--3--3--3--3--3--3-----|
--------------------------|-----------------------3--|



--------------------------|--------------------------|
--------------------------|--------------------------|
--------------------------|-----------------1--2--3--|
--3--3--3--3--3--3--1--3--|--3--3--3--3--3-----------|



--------------------------|--------------------------|
--------------------------|--------------------------|
--3--3--3--3--3--3--3--3--|--3--3--3--3--3--3--3-----|
--------------------------|-----------------------3--|



--------------------------|--------------------------|
--------------------------|--------------------------|
--------------------------|-----------------1--2--3--|
--3--3--3--3--3--3--1--3--|--3--3--3--3--3-----------|



--------------------------|--------------------------|
--------------------------|--------------------------|
--3--3--3--3--3--3--3--3--|--3--3--3--3--3--3--3--3--|
--------------------------|--------------------------|



--------------------------|----------------------|------------------------|
--0--0--0--0--0--0--0--0--|--0-------------------|------------------------|
--------------------------|-------------------0--|----0--------0--0-------|
--------------------------|-------------0--3-----|-------0--3--------0----|



------------------------|------------------------|------------------------|
--0---------------------|------------------------|--0---------------------|
-------0--3----0--3--0--|----0--------0--0-------|-------0--3----0--3--0--|
------------------------|-------0--3--------0----|------------------------|



------------------------|------------------------|------------------------|
------------------------|--0---------------------|------------------------|
----0--------0--0-------|-------0--3----0--3--0--|----0--------0--0-------|
-------0--3--------0----|------------------------|-------0--3--------0----|



------------------------|--------------------|----------------------|
--0---------------------|--------------------|----------------------|
-------0--3-------------|--------------------|----------------------|
---------------1--2--3--|------3--------3----|------3------1--2--3--|



--------------------|----------------------|--------------------|
--------------------|----------------------|--------------------|
--------------------|----------------------|--------------------|
------3--------3----|------3------1--2--3--|------3--------3----|



----------------------|--------------------|--0--0--0--0--0-----------|
----------------------|--------------------|-----------------3--0-----|
----------------------|--------------------|--------------------------|
------3------1--2--3--|------3--------3----|-----------------------3--|



-------------------------|--------------------------|--------------------------|
-------------------------|--------------------------|--------------------------|
-------------------------|--------------------------|--------------------------|
----3--3--3--3--3--3--3--|--3--3--3--3--3--0--1--0--|--3--3--3--3--3--3--3--3--|



--------------------------|-------------------------|--------------------------|
--------------------------|-------------------------|--------------------------|
--------------------------|-------------------------|--------------------------|
--3--3--0--0--1--1--2--3--|----3--3--3--3--3--3--3--|--3--3--3--3--3--0--1--0--|



--------------------------|--0--0--0--0--0----------|------------------------|
--------------------------|-------------------------|------------------------|
--------------------------|-------------------------|--0----0--------0-------|
--3--3--3--3--3--3--3--3--|-----------------1--3----|----------0--3-------0--|



------------------------|-------------------------|------------------------|
--0---------------------|-------------------------|--0---------------------|
-------0--3----0--3--0--|----0--0--------0--0-----|-------0--3----0--3--0--|
------------------------|----------0--3--------0--|------------------------|



-------------------------|------------------------|-------------------------|
-------------------------|--0---------------------|-------------------------|
----0--0--------0--0-----|-------0--3----0--3--0--|----0--0--------0--0-----|
----------0--3--------0--|------------------------|----------0--3--------0--|



--2--2--2--0-0----0--------|------------------------|-------------------------|
---------------2-----------|------------------------|-------------------------|
---------------------------|------------------------|--3--3--0--1-------1-----|
---------------------1--3--|------3--0--1--3--3--1--|----------------3-----3--|



-------------------------|------------------------|-------------------------|
-------------------------|------------------------|-------------------------|
-------------------------|--3----0--1-------------|-------------------------|
----3--3--0--1--3--3--1--|---------------0--1--3--|----3--3--0--1--3--3--1--|



------------------------|-------------------------|------------------------|
------------------------|-------------------------|------------------------|
--3----0--1-------------|-------------------------|--3----0----------------|
---------------0--1--3--|----3--3--0--1--3--3--1--|----------3----0--1--3--|



------------------------|-------------------------|-------------------------|
------------------------|-------------------------|-------------------------|
------------------------|--3--3--0--1-------1-----|-------------------------|
------3--0--1--3--3--1--|----------------3-----3--|----3--3--0--1--3--3--1--|



------------------------|-------------------------|------------------------|
------------------------|-------------------------|------------------------|
--3----0--1-------------|-------------------------|--3----0--1-------------|
---------------0--1--3--|----3--3--0--1--3--3--1--|---------------0--1--3--|



-------------------------|------------------0----|------------------|
-------------------------|-----------------------|------------------|
-------------------------|--3----0--1------------|------------------|
----3--3--0--1--3--3--1--|---------------3-------|------------------|



------------------||
------------------||
------------------||
------------------||



Get this song at amazon.com      Ebay     Ringtones Ringtones  


Learn to play: Songwriting, Piano, Harmonica, Guitar
Also available at Muzikum: Guns 'N' Roses - Out Ta Get Me lyrics

Related Guns N Roses Bass Tabs

It s so easy bass
Civil War bass
Raw Power bass
Brakdown bass
Word Up bass
Dont Cry bass
Estranged bass
Used To Love Her bass
Its So Easy bass
Knockin On Heavens Door bass
Perfect Crime bass
Don't Cry bass
Aint It Fun bass
Since I Dont Have You bass
The Garden bass
Locamotive bass
Double Talkin Jive bass
Sweet Child O Mine Intro bass
Don' Cry bass
Welcom To The Jungle(out Of The Big Gold Book) bass


Guitar Tabs









All tabs are property and copyright of their owners. All tabs provided for educational purposes only. Privacy Policy, DMCA