Guns N Roses

Oh My God Tabs



More from Guns N Roses

Guns N Roses Tabs
Guns N Roses Chords
Guns N Roses Bass
Guns N Roses Lyrics



Bass I
E E E E E E E E E E E E E Q E
|-------------------|------------------|
|-------------------|------------------|
|---------------2---|------4-----------|
|-------4-----3---3-|----5---5---/3--5-|
|----5----5-3-------|--5---------------|
|--0----------------|------------------|
|
| Bass II
| Q Q E E E E Q E E E Q E
|-------------------|------------------|
|-------------------|------------------|
|-------------------|------------------|
|-------------------|------------/3--5-|
|------/5---3-------|-/5---3-----------|
|--0----------0---0-|--------0---------|
|-Bass Fig 1 (both Basses)


E E E E E E E E E E E E E Q E
|------------------|-------------------|
|------------------|-------------------|
|--------------2---|------4------------|
|------4-----3---3-|----5---5---/5--7--|
|---5----5-3-------|--5----------------|
|-0----------------|-------------------|
|
| Q Q E E E E Q E E E Q E
|------------------|-------------------|
|------------------|-------------------|
|------------------|-------------------|
|------------------|------------/5--7--|
|-----/5---3-------|-/5---3------------|
|-0----------0---0-|--------0----------|
end Bass Fig 1-|

w/Bass Fig 1 x2
Gtr II
Get this song at amazon.com      Ebay     Ringtones Ringtones  


Learn to play: Songwriting, Piano, Harmonica, Guitar
Also available at Muzikum: Guns 'N' Roses - Oh My God lyrics

Related Guns N Roses Tabs

Dust N Bones tabs
You Aint The First tabs
Oh My God Solo tabs
Patience 2001 Intro tabs
Yesterday tabs
Somewhere Over The Rainbow tabs
Spaghetti Incident Album tabs
Live And Let Die (greatest Hits) tabs
Sweet Child O Mine Intro tabs
Paradise City Guitar tabs
Noevember Rain Acoustic tabs
Since I Don't Have You tabs
Talkin Double Jive tabs
Sweet Ol Child Of Mine tabs
Pretty Tied Up tabs
Live And Let Die (main Riff) tabs
Bad Obsession Intro tabs
Wild Horses tabs
Shotgun Blues tabs
Perfect Crime tabs


Guitar Tabs









All tabs are property and copyright of their owners. All tabs provided for educational purposes only. Privacy Policy, DMCA

Online converter - videoconverter.com