Guns N Roses

Nightrain (live) Tabs



More from Guns N Roses

Guns N Roses Tabs
Guns N Roses Chords
Guns N Roses Bass
Guns N Roses Lyrics



NIGHTRAIN LIVE VERSION

tune your guitar down by a half step

INTRO.
|----------------------------------------------------|
|----------------------------------------------------|
|-9-5-7-7-7-5-5-5-4---4-5-5-7-7-5-4-5-4-5-4-2-0-2----|
|-7-7-7-7-7-5-5-5-5-5-5-3-3-5-5-5-5-5-5-5-5-2-0-2----|
|-------0--------------------------------------------|
|----------------------------------------------------|


Izzy's SOLO
|-5-8-5-8-5------------7-----------------------------------|
|-----------8-6-8-6-8----10-7-10-7-----------7---7-10-7----|
|----------------------------------9-7-------7-9-7--7-7----|
|--------------------------------------9-9-9---9-----------|
|--------------------------------------9-9-9---------------|
|--------------------------------------7-7-7---------------|



Slash's SOLO (begin as soon as Izzy's solo ends)
|---------------------------------------------------9-12-14----------------------------------------10-10--------------10-|
|-10-------10-10-------10---------10-10----------10---------12b13-14-12-10-12-14-12-12-10----------10-10--------------10-|
|--9b11-11--9--9b11-11--7-9b11-11--9--7-10S11-11------------------------------------------11-11----------12-10pb11-11----|
|-----------------------------------------------------------------------------------------------12-----------------------|
|------------------------------------------------------------------------------------------------------------------------|
|------------------------------------------------------------------------------------------------------------------------|


E E E E E E E E E E E E E E E E E E E E E E E E E E E E E E E E E E E
|----12-14-10----------------------------14-------------------------------------------------------------------|
|----12-14-10----------------------17-19----17-14-17-14----14----14-------------------------------------------|
|-11----------12b14-14-12-12-10-12----------------------17----17----17-16-14-16-14----12-------------11-11-10-|
|----------------------------------------------------------------------------------14----14-13-12s11-12-12-11-|
|----------------------------------------------------------------------------------------------------12-12-11-|
|-------------------------------------------------------------------------------------------------------------|


E E E E E E E E E E E E E E E E E E E E E E E E E E E E E E E E E E E
|-------------------------------------------------------------------------------------------------|
|---------------------------------------------------------------------7-7---7-7-------------------|
|-11-11-12-11-10-11S13-14-14-13-13-11-------------------------9b11-11-----9-----9-8-7-6b8-7-6-----|
|-12-12-14-12-11-12S14----------------------14-13-14-13-11-13---------------------------------9-7-|
|-12-12-14-12-11-12S14-16-16-14-14-12-------------------------------------------------------------|
|-------------------------------------14s16-16-14-14-14-12-12-------------------------------------|


~~~~

|---------------|
|---------------|
|---------------|
|---------------|
|-9-7-7-9b11----|
|---------------|



end solo (Played By Slash)

|-------------------------------------------------------------------------8---------|
|-----7-8-7---7---7-5b7---5-----------------------8b10-10-8-------------8---8-------|
|-9-9-------9---7-------8---8-7-8-7-5-7b9-9-7-7-5-----------7b9-9-7-7-5-------7b9-9-|
|-----------------------------------------------------------------------------------|
|-----------------------------------------------------------------------------------|
|-----------------------------------------------------------------------------------|



|-----------------5------------------------------------------------------------------------|
|-------8b10-10-8---8p-5------------------------------------------------8b10-10-8-8pb10r10-|
|-7-7-5------------------7b9-9-7p-5-------------------------------7-7-5--------------------|
|-----------------------------------7-7-5--------------------------------------------------|
|-----------------------------------------7-6-5-3-5b7-7-5-3-----3--------------------------|
|-----------------------------------------------------------5-5----------------------------|


E E E E E E E E E E E E E E E E E E E E E E E E E E E E E E E E E E E
|---------5-8------------------------------------------------------8b10-10-8-10-8-10-8-8-7-8-7h8-7------8---|
|-8b10-10-----8b10-10-8b10-10-8-10b12-13-10-10b12-12-10b12-12-10-8---------------------------------10-8---8-|
|----------------------------------------------------10b12-12-10--------------------------------------------|
|-----------------------------------------------------------------------------------------------------------|
|-----------------------------------------------------------------------------------------------------------|
|-----------------------------------------------------------------------------------------------------------|



|-5-8-5------5---8-5--------------------------------------------------|
|-------8b10---8-----8-6-8-6-5-6-5h6-5h6-5----------------------------|
|------------------------------------------7-7-5----------------------|
|------------------------------------------------7b9-5----------------|
|------------------------------------------------------7-5------------|
|----------------------------------------------------------8p5-3-3----|



|---------------------------------------------------------------------------|
|-----------------------------------------------------------------5-6-8---5-|
|-----------------------------------4-----4-5S7-4S5---4-5-7-4h5h7-------7---|
|---------------------------3-3-7-5---5-7-----------7-----------------------|
|---------3-5-5b7h7-3-5-5-3-------------------------------------------------|
|-3b5-5-3-------------------------------------------------------------------|



|------------------------------------------------------12-------12-13-12-13-12-13-12S13-12-13-12-|
|-6---------5h6h8-----------------10-12-10----12-13-15----13-15----------------------------------|
|---5p4h5h7-------9h10h12-9h10h12----------12----------------------------------------------------|
|------------------------------------------------------------------------------------------------|
|------------------------------------------------------------------------------------------------|
|------------------------------------------------------------------------------------------------|



|----13-15-13-13-15-13-12-13-12----12-12----12-13-12-13-12----12-10----10-------------------------------------|
|-15----------------------------15-------15----------------15-------13----12b14-14-12-10-10-10-15-13----15-17-|
|----------------------------------------------------------------------------------------------------14-------|
|-------------------------------------------------------------------------------------------------------------|
|-------------------------------------------------------------------------------------------------------------|
|-------------------------------------------------------------------------------------------------------------|



|----15-15----------------------------------------15-------15-17-15-17-15----15----------------------------15-|
|-15-------15-17-15-13-15-13-18b20-20-18-20-18-17----17-18----------------18----18-20-18-17-15-17-------17----|
|-------------------------------------------------------------------------------------------------17-19-------|
|-------------------------------------------------------------------------------------------------------------|
|-------------------------------------------------------------------------------------------------------------|
|-------------------------------------------------------------------------------------------------------------|



|-17-15-13-------------------15-15-15--------------------------------------------------------20b22-22-20-20-19-20-|
|----------17-15----------15----------15-13-12-12-13-15--------------------20b22-22-20b22-22----------------------|
|----------------17-16-17-------------------------------12-14-14-12----14-----------------------------------------|
|-------------------------------------------------------------------14--------------------------------------------|
|-----------------------------------------------------------------------------------------------------------------|
|-----------------------------------------------------------------------------------------------------------------|



|-19-17-19----17----------------------------------------------------------------------------------------------|
|----------20----18-20-17-18----------------------------------------------------------------------------------|
|----------------------------19-19-17-17-19-16-17-16----17----19-17-15-17-15----------------------------------|
|----------------------------------------------------19----16----------------14----15----14b16-15----14-15-17-|
|-------------------------------------------------------------------------------------------------17----------|
|-------------------------------------------------------------------------------17----17----------------------|



|--------------------------------------15----|
|-----------17-19-17-16-15b17-17-15b17-------|
|-14h16h17-----------------------------------|
|--------------------------------------------|
|--------------------------------------------|
|--------------------------------------------|


Get this song at amazon.com      Ebay     Ringtones Ringtones  


Learn to play: Songwriting, Piano, Harmonica, Guitar
Also available at Muzikum: Guns 'N' Roses - Nightrain Live lyrics

Related Guns N Roses Tabs

Johnny Came Marching Home tabs
Nightrain Intro tabs
Always On The Run tabs
Chinese Democracy tabs
Paradise City Solo tabs
Patience tabs
Ain't Fun tabs
Since I Dont Have You tabs
Sweet Child O Mine 1000% Perfect tabs
Sweet Child O Mine Intro tabs
Knocking On Heavens Door tabs
Mr. Brownston tabs
Paitince tabs
Better tabs
The Godfather Theme tabs
Live And Let Die tabs
Rocket Queen Solo tabs
I Used To Love Her tabs
Knockin On Heavens Door tabs
Civil War Solo tabs


Guitar Tabs









All tabs are property and copyright of their owners. All tabs provided for educational purposes only. Privacy Policy, DMCA