Guns N Roses

Nice Boys Bass Tabs



More from Guns N Roses

Guns N Roses Tabs
Guns N Roses Chords
Guns N Roses Bass
Guns N Roses Lyrics



G|--------------------------------------------------------------------||
D|o------------------------------------------------------------------o||
A|o-2-2-2-2-2-2-2-2-0-0-0-0-0-0-0-0----------------------------------o||
E|----------------------------------0-0-2-2-0-0-0-0-0-0-2-2-0-0-0-0---||


G-----------------------------------------------------1-1-2-2-4-4-|
D-----------------------------------------------------------------|
A-2-2-2-2-2-2-2-2-0-0-0-0-0-0-0-0---------------------------------|
E---------------------------------0-0-2-2-0-0-0-0-0-0-------------|


G--------------------------------------------------------------|
D--------------------------------------------------------------|
A-2-2-2-2-2-2-2-2-0-0-0-0-0-0-0-0-----7-7-----7-7--------------|
E---------------------------------0-0-----0-0-----0-0--0--0--0-|


Verse
G|-------------------------------------------------------------------||
D|o-----------------------------------------------------------------o||
A|o-2-2-2-2-2-2-2-2-0-0-0-0-0-0-0-0---------------------------------o||
E|----------------------------------0-0-0-0-0-0-0-0-0-0-0-0-0-0-0-0--||


G-------------------------------------------------------------|
D-------------------------------------------------------------|
A-5-5-5-5-5-5-5-5-5-5-5-5-5-5-5-5S7-7-7-7-7-7-7-7-7-5---5-----|
E-----------------------------------------------------7---7-5-|


G-----------------------------------------------------------------|
D-----0-0-1-1-2-2-----0-0-1-1-2-2---------------------------------|
A-2-2-------------0-0---------------------------------------------|
E---------------------------------0-0-0-0-0-0-0-0-0-0-0-0-0-0-0-0-|


Chorus
G|------------------------------------|
D|o-----------------------------------|
A|o-----------------------------------|
E|--7-7-5-5-7-7-5-5-7-7-5-5-7-7-5-5-5-|


E----------------------------------||---------|
A---------------------------------o||---------|
D---------------------------------o||--7--7--|
G-5-5-3-3-5-5-3-3-5-5-3-3-5-5-3-3--||---------|



This is the part after the guitar solo where the guitars and bass stop
playing, then the bass starts playing alone.
G-----------------------------------|----------------------------------|
D-9-9-7-7-9-9-7-7-9-9-7-7-9-9-7-7-7-|-7-7-5-5-7-7-5-5-7-7-5-5-7-7-5-5--|
A-----------------------------------|----------------------------------|
E-----------------------------------|----------------------------------|


G-----------------------------------|-----------------------|
D-9-9-7-7-9-9-7-7-9-9-7-7-9-9-7-7-7-|-7-7-5-5---------------|
A-----------------------------------|---------7-7-5-5-------|
E-----------------------------------|-----------------7----|



Get this song at amazon.com      Ebay     Ringtones Ringtones  


Learn to play: Songwriting, Piano, Harmonica, Guitar
Also available at Muzikum: Guns 'N' Roses - Nice boys lyrics

Related Guns N Roses Bass Tabs

Bad Apples bass
Knockin On Heavens Door (standard Tunin) bass
Perfect Crime (duff's Version) bass
Civil War bass
Yesterdays bass
The Garden bass
Aint It Fun bass
So Fine bass
Garden Of Eden (the Insane Version) bass
Paradice City bass
Shot Gun Blues bass
Mr Brownstone bass
Slash's Sweet Child Of Mine Intro On Bass bass
14 Years bass
Night Train bass
Garden Of Eden bass
Paradise City bass
Knocking On Heaven's Door bass
Brakdown bass
Dead Horse bass


Guitar Tabs









All tabs are property and copyright of their owners. All tabs provided for educational purposes only. Privacy Policy, DMCA