Guns N Roses

New Rose Bass Tabs



More from Guns N Roses

Guns N Roses Tabs
Guns N Roses Chords
Guns N Roses Bass
Guns N Roses Lyrics




Verse/outro:
G|---0--------------0--------------0-|
D|-33-11110111011133-11110111011133--|
A|-----------------------------------|
E|-----------------------------------|

G|-------------------------------------------------------------|
D|-------------------------------------------------------------|
A|-222222222222210--------------1222222222222210---------------|
E|----------------44444444444444----------------44444444444444-|

G|-------------------------------------------------------------|
D|-------------------------------------------------------------|
A|---------11111111333333333333--------11111111333333333333333-|
E|-44444444--------------------44444444------------------------|

G|------------|
D|-------1----|
A|-4--1-------|
E|----------4-|



Get this song at amazon.com      Ebay     Ringtones Ringtones  


Learn to play: Songwriting, Piano, Harmonica, Guitar
Also available at Muzikum: Guns 'N' Roses - New rose lyrics

Related Guns N Roses Bass Tabs

New Rose bass
Youre Crazy bass
Live N Let Die bass
Coma bass
Bad Obsession bass
Since I bass
Knockin on heavans door bass
Bad Apples bass
Since I Don't Have You bass
Shot Gun Blues And Lyrics bass
Used To Love Her bass
Double Talkin Jive bass
Reckless Life bass
Brakdown bass
Sweet Child O Mine bass
Don' Cry bass
Chinese Democracy bass
Locomotive bass
Welcome To The Jungle (100%) bass
Sweet Childo'mine bass


Guitar Tabs









All tabs are property and copyright of their owners. All tabs provided for educational purposes only. Privacy Policy, DMCA