Guns N Roses

Move To The City Tabs



More from Guns N Roses

Guns N Roses Tabs
Guns N Roses Chords
Guns N Roses Bass
Guns N Roses Lyrics

 Intro

4/4

Gtr I

|-x--x--x-x--x---x--x-x-|-12-----------------12--------------------|

|-x--x--x-x--x---x--x-x-|-12--14-12-14-12-14-12----14-12-14-12-14--|

|-x--x--x-x--x---x--x-x-|-12--14-12-14-12-14-12----14-12-14-12-14--|

|-----------------------|------------------------------------------|

|-----------------------|------------------------------------------|

|-----------------------|------------------------------------------|

|

| Gtr II

|-----------------------|-12-----------------12-12-----------------|

|-----------------------|-12--14-12-14-12-14-12-12-14-12-14-12-14--|

|-----------------------|-12--14-12-14-12-14-12-12-14-12-14-12-14--|

|-----------------------|------------------------------------------|

|---------------21\-----|------------------------------------------|

|-----------------------|------------------------------------------|





|-12-----------------------------------|

|-12----14-12-14-12-14-12--12--12--x-x-|

|-12----14-12-14-12-14-12--12--12--x-x-|

|--------------------------------------|

|--------------------------------------|

|--------------------------------------|

|

| ~~

|-12-12--------------------------------|

|-12-12-14-12-14-12-14-12--------------|

|-12-12-14-12-14-12-14-12--------------|

|--------------------------------------|

|--------------------------------------|

|--------------------------------------|





|-12-----------------12---------------------|-12-----------------------------------------|

|-12--14-12-14-12-14-12----14-12-14-12-14---|-12----14-12-14-12-14-14b16=====(14)r-12-14-|

|-12--14-12-14-12-14-12----14-12-14-12-14---|-12----14-12-14-12-14-14b16=====(14)--12-14-|

|-------------------------------------------|--------------------------------------------|

|-------------------------------------------|--------------------------------------------|

|-------------------------------------------|--------------------------------------------|

|

| ~~~~~~

|-12-----------------12-12------------------|-12-12--------------------------------------|

|-12--14-12-14-12-14-12-12-14-12-14-12-14---|-12-12-14-12-14-12-14-12--------------------|

|-12--14-12-14-12-14-12-12-14-12-14-12-14---|-12-12-14-12-14-12-14-12--------------------|

|-------------------------------------------|--------------------------------------------|

|-------------------------------------------|--------------------------------------------|

|-------------------------------------------|--------------------------------------------|





|-12-----------------12-------------------|-12-------------------------------------|

|-12--14--x-12-14--x-12----14-12-14-12-14-|-12----14-12-14-12-14-12----12--12--x-x-|

|-12--14--x-12-14--x-12----14-12-14-12-14-|-12----14-12-14-12-14-12----12--12--x-x-|

|-----------------------------------------|----------------------------------------|

|-----------------------------------------|----------------------------------------|

|-----------------------------------------|----------------------------------------|

|

| ~~

|-12-----------------12-12----------------|-12-12----------------------------------|

|-12--14-12-14-12-14-12-12-14-12-14-12-14-|-12-12-14-12-14-12-14-12----------------|

|-12--14-12-14-12-14-12-12-14-12-14-12-14-|-12-12-14-12-14-12-14-12----------------|

|-----------------------------------------|----------------------------------------|

|-----------------------------------------|----------------------------------------|

|-----------------------------------------|----------------------------------------|





|-12-----------------12-------------------|

|-12--14-12-14-12-14-12----14-12-14-12-14-|

|-12--14-12-14-12-14-12----14-12-14-12-14-|

|-----------------------------------------|

|-----------------------------------------|

|-----------------------------------------|

|

|-12-----------------12-12----------------|

|-12--14-12-14-12-14-12-12-14-12-14-12-14-|

|-12--14-12-14-12-14-12-12-14-12-14-12-14-|

|-----------------------------------------|

|-----------------------------------------|

|-----------------------------------------|





|-12-15-12--12\------------------------------------------------------------|

|-12-15-12--12\------------------0--3--2--0--------------------------------|

|-----------------------------------------------2--0-----------------------|

|--------------------------------------------------------2--0--------------|

|----------------------------------------------------------------2---------|

|-------------------------------------------------------------------3b4----|

|

|-12-12-12--------12-12-12-12----------------------------------------------|

|-12-12-12--------12-12-12-12---------12-------12-------12-----------------|

|-12-12-----14b16---------------14b16----14b16----14b16----14b16-----------|

|--------------------------------------------------------------------------|

|--------------------------------------------------------------------------|

|-------------------------------------------------------------------3b4----|





|----------------------------|-----------------------|

|----------------------------|-----------------------|

|---x-9-9-x-x-9-9-x-x-9--9-9-|-7-7--6-6--4-4--7-7-8--|

|---x-9-9-x-x-9-9-x-x-9--9-9-|-7-7--6-6--4-4--7-7-8--|

|---x-7-7-x-x-7-7-x-x-7--7-7-|-5-5--4-4--2-2--5-5-6--|

|-0--------------------------|-----------------------|

|

|----------------------------|-----------------------|

|----------------------------|-----------------------|

|---x-9-9-x-x-9-9-x-x-9--9-9-|-7-7--6-6--4-4--7-x-8--|

|---x-9-9-x-x-9-9-x-x-9--9-9-|-7-7--6-6--4-4--7-x-8--|

|---x-7-7-x-x-7-7-x-x-7--7-7-|-5-5--4-4--2-2--5-x-6--|

|-0--------------------------|-----------------------|





|----------------------------|--------------------------|

|----------------------------|--------------------------|

|-9-x-9-9-x-x-9-9-x-x-9--9-9-|-7---7--6---6--4-4--7--8--|

|-9-x-9-9-x-x-9-9-x-x-9--9-9-|-7---7--6---6--4-4--7--8--|

|-7-x-7-7-x-x-7-7-x-x-7--7-7-|-5---5--4---4--2-2--5--6--|

|----------------------------|--------------------------|

|

| ~

|----------------------------|--------------------------|

|----------------------------|-7b8----6b7----4----7--8--|

|-9-x-9-9-x-x-9-9-x-x-9--9-9-|-7b8----6b7----4----7--8--|

|-9-x-9-9-x-x-9-7-x-x-9--9-9-|--------------------------|

|-7-x-7-7-x-x-7-7-x-x-7--7-7-|--------------------------|

|----------------------------|--------------------------|





Verse 1

|-----------------------------------|------------------------------|

|-----------------------------------|------------------------------|

|-9---------------------------------|------------------------------|

|-9----------------------5----------|-----------5-7-7b9r7--5--5----|

|-7--7-5-7--7-5-7--x-5-7---7-5-7----|-----7-7-7------------------5-|

|-----------------------------------|------------------------------|

|

| ~

|-----------------------------------|------------------------------|

|-9---------------------------------|------------------------------|

|-9---------------------------------|------------------------------|

|------------------------------7b8==|=7r\---------------9--7--5----|

|-----------------------------------|-------------------9--7--5----|

|-----------------------------------|-------------------7--5--3----|





|-----------------------|--------------------------|

|-----------------------|--------------------------|

|-----------------------|------------------------9-|

|---------------5-------|----------5-7--7b9r7-5--9-|

|-7--7-7-7--7-7---7-5-7-|----7-7-7---------------7-|

|-----------------------|--------------------------|

|

| ~

|-----------------------|--------------------------|

|-----------------------|--------------------------|

|-----------------------|-7\---------------------9-|

|-2---------9-----------|-7\---------------------9-|

|-2---------------------|------------------------7-|

|-0---------------------|--------------------------|





Pre-Chorus

|------------------|-------------|---------|-----0---------|

|------------------|-------------|---------|---------------|

|-7--------------9-|-7---------8-|-9-----7-|-7-------------|

|-7--------------9-|-7---------8-|-9-----7-|-7-------------|

|-5---7-8-7-5----7-|-5---------6-|-7-------|---------------|

|------------------|-------------|---------|-----------3b4-|

|

| ~

|------------------|-------------|---------|---------------|

|-----------8b9----|-7----8b9----|---------|---------------|

|-7---------9b10---|-7----9b10---|-9-----9-|-7-------------|

|-7----------------|-------------|-9-----9-|-7-------------|

|-5----------------|-------------|-7-----7-|-5-------------|

|------------------|-------------|---------|-----3-5-7-3b4-|



Chorus

|---------------------------|------------------------------|

|---------------------------|------------------------------|

|---9-x-9-x-9-x-------------|-----9-x-9-x-9-x--------------|

|---9-x-9-x-9-x-7b9r7p5-----|-----9-x-9-x-9-x-7b9r7p5------|

|---7-x-7-x-7-x---------7---|-----7-x-7-x-7-x---------7----|

|-0-----------------------0-|-(0)-----------------------0--|

|

|---------------------------|------------------------------|

|---------------------------|------------------------------|

|---9-x-9-x-9-x-------------|-----9-x-9-x-9-x--------------|

|---9-x-9-x-9-x-7b9r7p5-----|-----9-x-9-x-9-x-9\-----------|

|---7-x-7-x-7-x---------7---|-----7-x-7-x-7-x--------------|

|-0-----------------------0-|-(0)-----------------------0--|





|-----------------------------|------------------------------------|

|-----------------------------|---------------3-2-0----------------|

|-----9-x-9-x-9-x-------------|-----9---9-9---------2-0------------|

|-----9-x-9-x-9-x-7b9r7p5-----|-----9---9-9-------------2-0--------|

|-----7-x-7-x-7-x---------7---|-----7---7-7-----------------2------|

|-(0)-----------------------0-|-(0)----------------------------3b4-|

|

|-----------------------------|------------------------------------|

|-----------------8\----------|------------------------------------|

|-----9-x-9-x-9-x-9\----------|-----9-x-9---x-7-----6-----4--------|

|-----9-x-9-x-9-x-------------|-----9-x-9---x-7-----6-----4--------|

|-----7-x-7-x-7-x-------------|-----7-x-7---x-5-----4-----2--------|

|-(0)-------------------------|--0-----------------------------3b4-|



Play 2nd part of Intro again.



Verse 2

|------------------------|--------------------------|

|------------------------|--------------------------|

|------------------------|--------------------------|

|-----------------5----7-|-7b9r7-5-7-5--------------|

|-7-5-7-7--7--7-7--------|-------------7-5----------|

|------------------------|-----------------7-5-5-3--|

|

| ~

|------------------------|--------------------------|

|-9----------------------|--------------------------|

|-9----------------------|--------------------------|

|-----------------7b8====|=7r\-----------9---7---5--|

|------------------------|---------------9---7---5--|

|------------------------|---------------7---5---3--|





|--------------------------------|---------------------------------|

|--------------------------------|---------------------------------|

|--------------------------------|------7---------------------9----|

|----------------------------5-7-|-7b9==7-7r(7)-5-------------9----|

|-----7-7-7-7--7-7--7-7--7-7-----|----------------7--7--7-7---7----|

|-0-x----------------------------|---------------------------------|

|

|-------0------------------------|---------------------------------|

|-------0------------------------|---------------------------------|

|--------------------------------|-7\-------------------------9----|

|-2------------------------------|-7\-------------------------9----|

|-2------------------------------|----------------------------7----|

|-0------------------------------|---------------------------------|



Play Pre-Chorus and Chorus.



Pre-Solo

|--------------------------|------------------------|

|--------------------------|------------------------|

|-9---9-----7--7--7--7--8--|-9-------9--7-7-7--7-8--|

|-9---9-----7--7--7--7--8--|-9-------9--7-7-7--7-8--|

|-7---7-----5--5--5--5--6--|-7-------7--5-5-5--5-6--|

|--------------------------|------------------------|

|

| ~~ ~~

|--------------------------|------------------------|

|----15b17-15-15-15--------|------------------------|

|-9------------------------|---14b15---14-----------|

|-9------------------------|---14b15---14-----------|

|-7------------------------|------------------------|

|----------------------15\-|------------------------|





|------------------------|----------------|

|------------------------|----------------|

|-9-------9--7--7-7--7-8-|-9--9--7-7-7----|

|-9-------9--7--7-7--7-8-|-9--9--7-7-7----|

|-7-------7--5--5-5--5-6-|-7--7--5-5-5----|

|------------------------|----------------|

|

| ~~

|------------------------|----------------|

|------------------------|----------------|

|---12b13---11\----------|-9S===11--------|

|---12b13---11\----------|-9S===11--------|

|------------------------|----------------|

|------------------------|----------------|





Guitar Solo

|----------------------------------------------|-------------------------------|

|----------------------------------------------|-------------------------------|

|----------------------------------------------|-------------------------------|

|-------------------------------5-----5--------|-----------------------5-----5-|

|-4-----4---4---4-----4---4-----5-----5--------|-4---4-------------4-4-5-----5-|

|-2---0-2-0-2-0-2-0---2-0-2-----3-----3--------|-2---2-------------2-2-3-----3-|

|

|

| ~

|-----------------------2-------2--------------|-------------------------------|

|---------------------2---2-5b7---5-2----------|-------------------------------|

|-4b6-------------4b6-----------------4b6r4-2--|-4b6-----(2)-4b6r4-2-4-2-----2-|

|----------------------------------------------|-------------------------------|

|----------------------------------------------|-------------------------------|

|----------------------------------------------|-------------------------------|





|---------------------------------|

|---------------------------------|

|---------------------------------|

|-------------------------5-----5-|

|-4---4---4---4---4---4---5-----5-|

|-2---2-0-2-0-2-0-2-0-2---3-----3-|

|

| ~

|---------------------------------|

|---------------------------------|

|-2h4p2---------------------------|

|-------4-2---4-----2-----4-----4-|

|-----------4---4-3---2-3---------|

|---------------------------------|





|------------------------------------------------------------------------------|

|------------------------------------------------------------------------------|

|------------------------------------------------------------------------------|

|------------------------------------------------------------------------------|

|------------------------------------------------------------------------------|

|---0h2--2--2--2--2--0h=2--2--2----2--2--0h=2--2-----2--2--2--2-----2--0--0----|

|

|---------------------------------------14----------14-------------------------|

|------------------------------------14----14-17b19----17p14-------------17b19-|

|-------------------16----14-16b18---------------------------16b18r16-14-------|

|-------14-16p14-16----16------------------------------------------------------|

|-/16--------------------------------------------------------------------------|

|------------------------------------------------------------------------------|





Verse 3

|---------------------------------------------|

|---------------------------------------------|

|---------------------------------------------|

|--------------------------------------5------|

|--7---7-7--5-7-7-7--7-7--5-7-7-7--7-7----7-5-|

|---------------------------------------------|

|

| ~~~

|---------------------------------------------|

|-17\-----------------------------------------|

|---------------------------------11-----12---|

|---------------------------------11-----12---|

|---------------------------------------------|

|---------------------------------------------|





|--------------------------------------------|

|--------------------------------------------|

|--------------------------------------------|

|-------------5-5-7-7-7-7b9r7-5--------------|

|--7--7-7-7-7--------------------7--7--------|

|--------------------------------------------|

|

| ~~

|--------------------------------------------|

|--------------------------------------------|

|-14-----------------------------------------|

|-14----------------------------------9b10---|

|--------------------------------------------|

|--------------------------------------------|





|------------------------------------------|-----------------------------------|

|------------------------------------------|-----------------------------------|

|------------------------------------------|------------------------------9----|

|------------------------------------5-----|------------5-7--7b9r7-5-7-5--9----|

|-7-7-7--5-7-7-7-7-7--5-7-7-7-7-7------7-5-|-5--7-7-7-7-------------------7----|

|------------------------------------------|-----------------------------------|

|

| ~ ~

|------------------------------------------|-----------------------------------|

|------------------------------------------|-----------------------------------|

|-9-----------------------------9b10-------|-7------------------------------9--|

|-9-----------------------------9b10-------|-7------------------------------9--|

|------------------------------------------|--------------------------------7--|

|------------------------------------------|-----------------------------------|





|---------------|---------------------------------|

|---------------|---------------------------------|

|-7-----------9-|-7-----------------------------8-|

|-7-----------9-|-7-----------------------------8-|

|-5---7-8-7-5-7-|-5---3--2--0--3p2p0--3p2p0--3--6-|

|---------------|---------------------------------|

|

|---------------|---------------------------------|

|-----------8---|-7-------------------------------|

|-7---------9---|-7-----------------------------8-|

|-7-------------|-------------------------------8-|

|-5-------------|-------------------------------6-|

|---------------|---------------------------------|





|-----------|------0---------------|

|-----------|------0---------------|

|-9-------x-|-7--------------------|

|-9-------x-|-7--------------------|

|-7-------x-|----------------------|

|-----------|---------------3b4----|

|

|-----------|----------------------|

|-----------|----------------------|

|-9-------9-|-7--------------------|

|-9-------9-|-7--------------------|

|-7-------7-|-5----3--5--7--3b4----|

|-----------|----------------------|



Play Chorus again.

then

Both Guitars.

|--------------------------|------------------------|

|--------------------------|------------------------|

|-9---9-----7--7--7--7--8--|-9-------9--7-7-7--7-8--|

|-9---9-----7--7--7--7--8--|-9-------9--7-7-7--7-8--|

|-7---7-----5--5--5--5--6--|-7-------7--5-5-5--5-6--|

|--------------------------|------------------------|





|--------------------------|--------------------------------|

|--------------------------|--------------------------------|

|-9---9-----7--7--7--7--8--|-9----------7-7-7-7-7-7-7--8-9\-|

|-9---9-----7--7--7--7--8--|-9----------7-7-7-7-7-7-7--8-9\-|

|-7---7-----5--5--5--5--6--|-7----------5-5-5-5-5-5-5--6-7\-|

|--------------------------|--------------------------------|





Tablature Legend

----------------

h - hammer-on

p - pull-off

b - bend

pb - pre-bend

r - bend release (if no number after the r, then release immediately)

/\ - slide into or out of (from/to "nowhere")

s - legato slide

S - shift slide

- natural harmonic

[n] - artificial harmonic

n(n) - tapped harmonic

~ - vibrato

tr - trill

T - tap

TP - trem. picking

PM - palm muting


/ - tremolo bar dip; n = amount to dip


- tremolo bar down

n/ - tremolo bar up

/n\ - tremolo bar inverted dip

= - hold bend; also acts as connecting device for hammers/pulls

<> - volume swell (louder/softer)

x - on rhythm slash represents muted slash

o - on rhythm slash represents single note slash



Misc Legend

-----------

| - bar

|| - double bar

||o - repeat start

o|| - repeat end

*| - double bar (ending)

: - bar (freetime)

$ - Segno

& - Coda

Tempo markers - = BPM(8/16=s8/s16), where s8 = swing 8ths, s16 = swing 16ths

Get this song at amazon.com      Ebay     Ringtones Ringtones  


Learn to play: Songwriting, Piano, Harmonica, Guitar
Also available at Muzikum: Guns 'N' Roses - Move to the city lyrics

Related Guns N Roses Tabs

Rocket Queen Solo tabs
Aint It Fun tabs
Knockin On Heavens Doors tabs
Patience tabs
Sweet Child O Mine Solo tabs
I Dont Care About You tabs
Use Your Illusion tabs
Sweet Child 'o' Mine 100 %perfect tabs
Wild Horses tabs
Move To The City tabs
Talkin Double Jive tabs
Somewhere Over The Rainbow tabs
There Was A Time tabs
Buick Makane tabs
Hair Of The Dog tabs
Dust N Bones tabs
Paradise City tabs
Civial War tabs
G N' R Lies (album) tabs
Civil War (perfect) tabs


Guitar Tabs









All tabs are property and copyright of their owners. All tabs provided for educational purposes only. Privacy Policy, DMCA