Guns N Roses

Locamotive Bass Tabs



More from Guns N Roses

Guns N Roses Tabs
Guns N Roses Chords
Guns N Roses Bass
Guns N Roses Lyrics




F#||------------------|------------------|------------------|------------------|
C#||------------------|------------------|------------------|------------------|
G#||------------------|------------------|------------------|------------------|
D#||------------------|------------------|------------------|------------------|



-------------------|---------------------------|-------------------------|
-------------------|--------------0--0-1--1-2--|----2--4--2--4--2--4-----|
----------------0--|----0--4-0-0---------------|----------------------0--|
-------------------|---------------------------|-------------------------|



---------------------------|-------------------------|
--------------0--0-1--1-2--|----2--4--2--4--2--4-----|
----0--4-0-0---------------|----------------------0--| X2
---------------------------|-------------------------|


---------------------------|----------------0--------|-------------------------|
--------------0--0-1--1-2--|----2--4--2--4-----4--2--|------0-2--0-2--0--0--2--|
----0--4-0-0---------------|-------------------------|-------------------------|
---------------------------|-------------------------|-------------------------|



-------------------------|-------------------------|------------0----0----|
------0-2--0-2--0--0--2--|------0-2--0-2--0--0--2--|------0-2-------------|
-------------------------|-------------------------|----------------------|
-------------------------|-------------------------|----------------------|



--2-----2----2----2----------|--2-----2----2----2----------|
------4----4----4----2-2-4-2-|------4----4----4----2-2-4-2-|
-----------------------------|-----------------------------| X2
-----------------------------|-----------------------------|


--2--2--2--2--2--2--------|--2--2--2--2--2--2--------|
--------------------2--2--|--------------------2--4--|
--------------------------|--------------------------|
--------------------------|--------------------------|



--2--2--2--2--2--2--------|--2--2--2--2--2--2------2---|
--------------------2--2--|--------------------2-4---2-|
--------------------------|----------------------------|
--------------------------|----------------------------|



--2--2--2--2--2--2--------|--2--2--2--2--2--2--------|
--------------------2--2--|--------------------2--4--|
--------------------------|--------------------------| X7
--------------------------|--------------------------|


--2--2--2--2--2--2--------|--2--2--2--2--2--2--------|--------------0--1--2--|
--------------------2--2--|--------------------2--4--|------4----4-----------|
--------------------------|--------------------------|-----------------------|
--------------------------|--------------------------|-----------------------|



------2----2--1--0-----|--------------0--1--2--|------2----2--1--0-----|
--------------------4--|------4----4-----------|--------------------4--|
-----------------------|-----------------------|-----------------------|
-----------------------|-----------------------|-----------------------|



--------------0--------|-----------------------|-----------------------|
------4----4-----4--2--|------2----2--0--2--2--|------2----2--0--2--2--|
-----------------------|-----------------------|-----------------------|
-----------------------|-----------------------|-----------------------|



-----------------------|-----------0----1----|--2--2--2--2--2--2--------|
------2----2--0--2--2--|------2--------------|--------------------2--4--|
-----------------------|---------------------|--------------------------|
-----------------------|---------------------|--------------------------|



--2--2--2--2--2--2--------|--2--2--2--2--2--2--------|
--------------------2--4--|--------------------2--4--|
--------------------------|--------------------------| X6
--------------------------|--------------------------|

--0--0--0--0--0--0--1--2--|--0--0--0--0--0--0--1--2--|
--------------------------|--------------------------|
--------------------------|--------------------------|
--------------------------|--------------------------|

--2--2--1--1--0--0--------|-----7--5----------------|--------------------------|
--------------------4--4--|--3--------6--7--7----7--|--7--7--6--6--5--5--4--4--|
--------------------------|-------------------------|--------------------------|
--------------------------|-------------------------|--------------------------|



-----7--5----------------|--------------------------|-----7--5----------------|
--3--------6--7--7----7--|--7--7--6--6--5--5--4--4--|--3--------6--7--7----7--|
-------------------------|--------------------------|-------------------------|
-------------------------|--------------------------|-------------------------|



--------------------------|-----7--5----------------|--------------------|
--7--7--6--6--5--5--4--4--|--3--------6--7--7----7--|--7-7---------------|
--------------------------|-------------------------|--------------------|
--------------------------|-------------------------|--------------------|



--------------------|--------------------|--------------------|
--7-7---------------|--7-7---------------|--7-7---------------|
--------------------|--------------------|--------------------|
--------------------|--------------------|--------------------|



----7-------7---------|----7-------7---------|----7-------7---------|
--------7-------7-----|--------7-------7-----|--------7-------7-----|
----------------------|----------------------|----------------------|
----------------------|----------------------|----------------------|



----7-------|--5----------------|--2--2--2--2--2--2--------|
--------7---|-------------------|--------------------2--4--|
------------|-------------------|--------------------------|
------------|-------------------|--------------------------|



--2--2--2--2--2--2--------|--2--2--2--2--2--2--------|
--------------------2--4--|--------------------2--4--|
--------------------------|--------------------------| X9
--------------------------|--------------------------|

--0--0--0--0--0--0--1--2--|------2----2--3--4--6--|------6----6--5--4--2--|
--------------------------|-----------------------|-----------------------|
--------------------------|-----------------------|-----------------------|
--------------------------|-----------------------|-----------------------|



------2----2--3--4--6--|------6----6--5--4--2--|------2----2--0-----0--|
-----------------------|-----------------------|-----------------2-----|
-----------------------|-----------------------|-----------------------|
-----------------------|-----------------------|-----------------------|



------------0--------0--|------------0--------0--|------------0-----0--0--|
------2--2-----2--2-----|------2--2-----2--2-----|------2--2-----2--------|
------------------------|------------------------|------------------------|
------------------------|------------------------|------------------------|



------------0----0----|--2--2--2--2--2--2--------|--2--2--2--2--2--2--------|
------2--2------------|--------------------2--4--|--------------------2--4--|
----------------------|--------------------------|--------------------------|
----------------------|--------------------------|--------------------------|

--2--2--2--2--2--2--------|--2--2--2--2--2--2--------|
--------------------2--4--|--------------------2--4--|
--------------------------|--------------------------| X8
--------------------------|--------------------------|


--2--2--2--2--2--2--------|--0--0--0--0--0--0--1--2--|
--------------------2--4--|--------------------------|
--------------------------|--------------------------|
--------------------------|--------------------------|


--0--0--0--0--0--0--1--2--|--2--2--1--1--0--0--------|-----7--5----------------|
--------------------------|--------------------4--4--|--3--------6--7--7----7--|
--------------------------|--------------------------|-------------------------|
--------------------------|--------------------------|-------------------------|



--------------------------|-----7--5----------------|--------------------------|
--7--7--6--6--5--5--4--4--|--3--------6--7--7----7--|--7--7--6--6--5--5--4--4--|
--------------------------|-------------------------|--------------------------|
--------------------------|-------------------------|--------------------------|



-----7--5----------------|--------------------------|-----7--5----------------|
--3--------6--7--7----7--|--7--7--6--6--5--5--4--4--|--3--------6--7--7----7--|
-------------------------|--------------------------|-------------------------|
-------------------------|--------------------------|-------------------------|



--------------------|--------------------|--------------------|
--7-7---------------|--7-7---------------|--7-7---------------|
--------------------|--------------------|--------------------|
--------------------|--------------------|--------------------|



--------------------|----7-------7---------|----7-------7---------|
--7-7---------------|--------7-------7-----|--------7-------7-----|
--------------------|----------------------|----------------------|
--------------------|----------------------|----------------------|



----7-------7---------|----7-------|--5----------------|
--------7-------7-----|--------7---|-------------------|
----------------------|------------|-------------------|
----------------------|------------|-------------------|



--2--2--2--2--2--2--------|--2--2--2--2--2--2--------|
--------------------2--4--|--------------------2--4--|
--------------------------|--------------------------| X5
--------------------------|--------------------------|

--2--2--2--2--2--2--------|--2--2--2--2--2--2--------|------------------|
--------------------2--4--|--------------------2--4--|------------------|
--------------------------|--------------------------|------------------|
--------------------------|--------------------------|------------------|

------------------|------------------|--2--2--1--1--0--0--------|
------------------|------------------|--------------------4--4--|
------------------|------------------|--------------------------|
------------------|------------------|--------------------------|

-----7--5----------------|--------------------------|-----7--5----------------|
--3--------6--7--7----7--|--7--7--6--6--5--5--4--4--|--3--------6--7--7----7--|
-------------------------|--------------------------|-------------------------|
-------------------------|--------------------------|-------------------------|



--------------------------|-----7--5----------------|--------------------------|
--7--7--6--6--5--5--4--4--|--3--------6--7--7----7--|--7--7--6--6--5--5--4--4--|
--------------------------|-------------------------|--------------------------|
--------------------------|-------------------------|--------------------------|

-----7--5----------------|--------------------|--------------------|
--3--------6--7--7----7--|--7-7---------------|--7-7---------------|
-------------------------|--------------------|--------------------|
-------------------------|--------------------|--------------------|

--------------------|--------------------|----7-------7---------|
--7-7---------------|--7-7---------------|--------7-------7-----|
--------------------|--------------------|----------------------|
--------------------|--------------------|----------------------|

----7-------7---------|----7-------7---------|----7-------7---------|
--------7-------7-----|--------7-------7-----|--------7-------7-----|
----------------------|----------------------|----------------------| X2
----------------------|----------------------|----------------------|

----7-------|--5----------------|------------------|------------------|
--------7---|-------------------|------------------|------------------|
------------|-------------------|------------------|------------------|
------------|-------------------|------------------|------------------|
Rest............ ------------------|------------------|------------------|------------------|
------------------|------------------|------------------|------------------|
------------------|------------------|------------------|------------------| X5
------------------|------------------|------------------|------------------|


-------------------|------------------|-------------------|-------------------|
-------------------|------------------|--2----------------|----------0--------|
--3----------------|------------------|-------------------|-------------------| X8
-------------------|------------------|-------------------|-------------------|


-------------------|------------------||
-------------------|------------------||
--3----------------|------------------||
-------------------|------------------||



Get this song at amazon.com      Ebay     Ringtones Ringtones  


Learn to play: Songwriting, Piano, Harmonica, Guitar
More Guns 'N' Roses lyrics available at Muzikum

Related Guns N Roses Bass Tabs

It s so easy bass
Sweet Child O Mine Bass Tab bass
Sweet Child O Mine Solo Played On Bass bass
Its So Easy bass
Don' Cry bass
Sweet Child O Mine Intro bass
Nightrain bass
Locamotive bass
Shotgun Blues bass
Civil War bass
Bad Apples bass
Since I Don Have You bass
Aint It Fun bass
Dead Horse bass
Coma (full Transcription) bass
Don't Cry bass
Paradise City bass
Shot Gun Blues And Lyrics bass
Welcome To The Jungle bass
Patience (live) bass


Guitar Tabs









All tabs are property and copyright of their owners. All tabs provided for educational purposes only. Privacy Policy, DMCA