Guns N Roses

Knocking On Heavens Door (original Song) Bass Tabs



More from Guns N Roses

Guns N Roses Tabs
Guns N Roses Chords
Guns N Roses Bass
Guns N Roses Lyrics



Guns N Roses
Song: Knockin On Heavens Door

Intro
G|-------|------------------------------------|--------------------------|
D|-2-3-4-|-4--4-------------------------------|-4--4-------------------4-|
A|-------|------1-2-4----2--2----2---2--2---4-|--------1-2-4--0-2--0-2---|
E|-------|-------------5-------5---5------5---|--------------------------|

Verse
G|-------------------------------|------------------------------|
D|----4---6--6-6--6--6----4------|-4----------------------------|
A|-3-------4-----------------2-1-|---1-2-4--2---2----2--2--4-1--|
E|-------------------------------|-------------5---5------5-----|

G|----------------1-|------------------------------------|
D|-4-----------------|-----------------------------1-3-4-|
A|----4-------1-2---|----1-2-4--0-2--222--222--224-------|
E|-2-----4--4-------|-2----------------------------------|

Chorus
G|----------------------4-------------------|
D|------------------------------------------|
A|-------1-2-4--4--0-2-----0-2-0-2--2-0-4-1-|
E|-2--2-------------------------------------|

G|-------------------------------------------|
D|-------------------------------1-3-4-------|
A|-------1-2-4--4--0-2--2--022-4-------0-2-1-|
E|-2--2--------------------------------------|

G|------------------------------------------|
D|--------------------------------2---------|
A|------1-2-4--4--0-2--2--------------------|
E|-2--2-------------------0000-0-----0-1111-|

G|----------------------------|
D|--------------------------4-|
A|-------1-2-4--4--0-2--0-2---|
E|-2--2-----------------------|

Brought to you by the BassMasta - http://www.tabs-database.com



Get this song at amazon.com      Ebay     Ringtones Ringtones  


Learn to play: Songwriting, Piano, Harmonica, Guitar
More Guns 'N' Roses lyrics available at Muzikum

Related Guns N Roses Bass Tabs

Breakdown bass
Knocking On Heavens Door bass
Welcome To The Jungle bass
My Michelle bass
Coma bass
Night Train bass
Dont Cry bass
Shot Gun Blues And Lyrics bass
Yesterdays bass
Attitude bass
Civil War bass
14 Years bass
Word Up bass
Back Off Bitch bass
New Rose bass
Don't Cry bass
Anything Goes bass
Big Dumb Sex bass
Perfect Crime bass
Prefect Crime bass


Guitar Tabs









All tabs are property and copyright of their owners. All tabs provided for educational purposes only. Privacy Policy, DMCA

Online converter - videoconverter.com